Music Guitar Tab, Tabs with MP3, ringtones, ringtone, concert tickets, guitar lessons, guitar tabs easy, guitar hero

Guitar Tabs Guitar Chords Bass Tabs
 Web Guitar Tabs
Guitar Lessons
 
Lyrics abcdefghijklmnopqrstuvwxyz # Top 100 Lyrics

Guitar Tabs
Guitar Tab






click on, click off


Tab for "World Wide Suicide" - Pearl Jam Rating 4Print Guitar Tabs
select alternative YouTube videos below...
Tweak the search term to refine the YouTube video results:         
Share on Facebook

Learn to play this song and others via online guitar lessons @ JamPlay.com!

28/2/06
1st single off pearl jam's new album, this is just the chorus which is played twice
sorry 'bout the lyrics - Eddie's just screaming
the song sounds f'n awesome

e|--------------------------------------------------------------------------------|
b|--------------------------------------------------------------------------------|
g|------------5--------------------5-------------------------5--------------------|
d|---7-7----5---5-5-5----7-7--5---5-5-5-------7-7---5---5-5-5---------------------|
a|---7-7----3---5-5-5----7-7--3---5-5-5-------7-7---3---5-5-5---------------------|
E|---5-5---------3-3-3----5-5------3-3-3-------5-5--------3-3-3-------------------|
                        "the whole world!     Wayoh World!

e|---------------------------------------|
b|---------------------------------------|
g|---7-7-7-7-7-7-7-----------------------|
d|---7-7-7-7-7-7-7-----------------------|
a|---5-5-5-5-5-5-5-----------------------|
E|---------------------------------------|
      "Yeah it's a worldwide suicide!"
									


911Tabs.com - tabs search engine
More "World Wide Suicide" tabs @ 911Tabs

A Guide to Tab NotationGuitar TabsGuitar ResourcesGuitar TabsPrivacy PolicyGuitar TabsContact

Online Guitar Lessons

Pearl Jam Guitar Tabs - Over 200,000 chords, guitar and bass tabs with video. Find tabs, video guitar lessons and more.