Music Guitar Tab, Tabs with MP3, ringtones, ringtone, concert tickets, guitar lessons, guitar tabs easy, guitar hero

Guitar Tabs Guitar Chords Bass Tabs
 Web Guitar Tabs
Guitar Lessons
 
Lyrics abcdefghijklmnopqrstuvwxyz # Top 100 Lyrics

Guitar Tabs
Guitar Tab






click on, click off


Tab for "Save You" - Pearl Jam Rating 4Print Guitar Tabs
select alternative YouTube videos below...
Tweak the search term to refine the YouTube video results:         
Share on Facebook

Learn to play this song and others via online guitar lessons @ JamPlay.com!

Artist: Pearl Jam
Title: Save You
Album: Riot Act
Transcribed by: allstar340

STANDARD TUNING
E-A-D-G-B-E

Much better than the other tabs here! 99.9% sure that it's correct. Enjoy!


G1: Mike
G2: Stone

Intro:
G1:
-----------------------------------------------|
-----------------------------------------------|
--------15-15--14-14--------9---9--9---9--9----|
--------x--x---x--x------0--10--10-10--10-10---|
--------13-13--12-12-----0--10--10-10--10-10---|
--0--0--0--0---0--0---------8---8--8---8--8----|

Verse:
		       _______________________ ____________________
G1:		      |			      |
----------------------|-----------------------|-------------------------------|
----------------------|-----------------------|-------------------------------|
--------15-15--14-14--|-----9---9--9---9--9---|---6--6-6-6-6-6--6-------------|
--------x--x---x--x---|--0--10--10-10--10-10--|---7--7-7-7-7-7--7-------------|
--------13-13--12-12--|--0--10--10-10--10-10--|---7--7-7-7-7-7--7-------------|
--0--0--0--0---0--0---|-----8---8--8---8--8---|---5--5-5-5-5-5--5-------------|

                       1st-3rd time		4th time

G2:
----------------------|-----------------------|-------------------------------|
----------------------|-----------------------|-------------------------------|
--13---13--13--13-13--|-----9--9--9---9---9---|---6--6-6-6-6-6--6-------------|
--14---14--14--14-14--|-----10-10-10--10--10--|---7--7-7-7-7-7--7-------------|
--14---14--14--14-14--|--0--10-10-10--10--10--|---7--7-7-7-7-7--7-------------|
--0----0---0---0--0---|--0--8--8--8---8---8---|---5--5-5-5-5-5--5-------------|

                      1-3 times		4th time

end of verse:
------------------------------------------------------------------------------|
------------------------------------------------------------------------------|
---------15-15--14-14--------15--15--14--14-----------------------------------|
----------------------------------------------10-10--10--10-------------------|
---------13-13--12-12--------13--13--12--12---10-10--10--10-------------------|
---0--0----------------0--0-------------------8--8---8---8--------------------|

Chorus:
G1:
------------------------------------------------------------------------------|
------------------------------------------------------------------------------|
-7--7--7-7--7--9-9--9-9-9--12-12--12-12-----9--9---9--9-----------------------|
-7--7--7-7--7--9-9--9-9-9--12-12--12-12--0--10-10--10-10----------------------|
-5--5--5-5--5--7-7--7-7-7--10-10--10-10--0--10-10--10-10----------------------|
--------------------------------------------8--8---8--8-----------------------|

------------------------------------------------------------------------------|
------------------------------------------------------------------------------|
--7--7--7--7-7--7--9--9--9--9-9--7--7-7--7-7-7--9--9--9--7---6---5------------|
--7--7--7--7-7--7--9--9--9--9-9--7--7-7--7-7-7--9--9--9-----------------------|
--5--5--5--5-5--5--7--7--7--7-7--5--5-5--5-5-5--7--7--7--5---4---3------------|
------------------------------------------------------------------------------|

G2:
------------------------------------------------------|
--12--12--12--15--15--15------------------------------|
--14b-14b-14b-17b-17b-17b-----------------------------|
------------------------------------------------------|
------------------------------------------------------|
------------------------------------------------------|

Solo After 1st Chorus:
w/ Rhythm Figure 1 (G1)
G2:
------------------------------------------------------------------------------|
------------------------------------------------------------------------------|
------------------------------------------------------------------------------|
------------------------------------------------------------------------------|
--13-13-13-13-13-13-14b15r14-13-13-13-13-13-13-13-14b15r14-13-13-13-13-13-14b-|
------------------------------------------------------------------------------|

 *tremolo picking            *tremolo picking            *tremolo picking

------------------------------------------------------------------------------|
------------------------------------------------------------------------------|
---------------------------------------------------------------12----14b15r14-|
---------------------14b15r14vv----------------14b15r14-14-14-----14----------|
------13-13-13-13-13------------13-13-13-13-13--------------------------------|
--0---------------------------------------------------------------------------|

*tremolo picking

------------------------------------------------------------------------------|
------------------------------------------------------------------------------|
--12-------12----14b15r14p12--------12----14b15r14p12-------------------------|
-----14-14----14-------------14--14----14--------------14vv-------------------|
------------------------------------------------------------------------------|
------------------------------------------------------------------------------|


(drum/bass)

(bass arranged)		     2:26
-|--------------------------------|-------------------------------------------|
-|--------------------------------|-------------------------------------------|
-|--------------------------------|---6-6-6-6-6-6-6---------------------------|
-|--------------------------------|---7-7-7-7-7-7-7---------------------------|
-|---------------------(3)--------|---7-7-7-7-7-7-7---------------------------|
-|-0-0-3-5-5b6r5-3-0--------------|---5-5-5-5-5-5-5---------------------------|

back to verse/intro progression

Back to Chorus (same parts)

Outtro:

w/ G1 playing verse/intro progressions
G2 (stone):
------------------------------------------------------------------------------|
------------------------------------------------------------------------------|
------------------------------------------------------------------------------|
------------------------------------------------------------------------------|
--13-13-13-13-13-13-12-12-12---13-13-13-13-13-13-13-12-12-12--13-13-13-13-13--|
------------------------------------------------------------------------------|

*tremolo picking             *tremolo picking
------------------------------------------------------------------------------|
------------------------------------------------------------------------------|
------------------------------------------------------------------------------|
------------------------------------------------------------------------------|
--13-13-13-13-13-13-14b15r14-13-13-13-13-13-13-13-14b15r14-13-13-13-13-13-14b-|
------------------------------------------------------------------------------|
									


911Tabs.com - tabs search engine
More "Save You" tabs @ 911Tabs

A Guide to Tab NotationGuitar TabsGuitar ResourcesGuitar TabsPrivacy PolicyGuitar TabsContact

Online Guitar Lessons

Pearl Jam Guitar Tabs - Over 200,000 chords, guitar and bass tabs with video. Find tabs, video guitar lessons and more.