Music Guitar Tab, Tabs with MP3, ringtones, ringtone, concert tickets, guitar lessons, guitar tabs easy, guitar hero

Guitar Tabs Guitar Chords Bass Tabs
 Web Guitar Tabs
Guitar Lessons
 
Lyrics abcdefghijklmnopqrstuvwxyz # Top 100 Lyrics

Guitar Tabs
Guitar Tab






click on, click off


Tab for "Satans Bed" - Pearl Jam Rating 4Print Guitar Tabs
select alternative YouTube videos below...
Tweak the search term to refine the YouTube video results:         
Share on Facebook

Learn to play this song and others via online guitar lessons @ JamPlay.com!

Verse
|---------------------|
|---------------------|
|---------------------|
|---------------------|
|---4p0-4p0-4---------|
|-5-----------5-4-3-3-|

Chorus
|---------|
|---------|
|-5---7---|
|-5-5-7-7-|
|-3-5-5-7-|
|---3---5-|

Solo: (tabbed by evan cowan)
-|----------------------------------------------|-----------------------------|
-|----------------------------------------------|-----------------------------|
-|-/12--12b14-14-14-14-14-14-14--14--14p12h14---|-----------------------------|
-|----------------------------------------------|-----------------------------|
-|----------------------------------------------|-----------------------------|
-|----------------------------------------------|-----------------------------|
grad.bend---------------------------------------------------------------------|

-|----------------|-------------------------|----------------------|----------|
-|----------------|-------------------------|----------------------|----------|
-|-14p12----------|-------------------------|-12----12-12-12-12----|----------|
-|-------14p12h14-|-12-12b13-13-13r12-12-12-|-12b13-13-13-13-13r12-|----------|
-|----------------|-------------------------|----------------------|----------|
-|----------------|-------------------------|----------------------|----------|
                                                hold bend---------------------|

-|---------------------------------|----------------------------------|------|
-|---------------------------------|------16-14-----16-14------16-14--|------|
-|-14-16-16b17r16-14--16b17r16-14--|--14--16-14-----16-14------16-14--|------|
-|-14----16b17r16-----16b17r16-----|--14--------16---------16---------|------|
-|---------------------------------|----------------------------------|------|
-|---------------------------------|----------------------------------|------|


-|------------------------------------------------------------------------|--|
-|-/17-17-17----17-17----17-17----17-19-19b20r19-19-19b20r19-19-19b20r19--|--|
-|-/17-17-17----17-17----17-17----17-19-19b20r19-19-19b20r19-19-19b20r19--|--|
-|-----------19-------19-------19-----------------------------------------|--|
-|------------------------------------------------------------------------|--|
-|------------------------------------------------------------------------|--|

There's some lead guitar parts in the outro, but I'm really not sure what they are. 
stuff pretty similar to the solo. I know one part:

|-----------------15-|
|-13h15-15p13-15b----|
|--------------------|
|--------------------|
|--------------------|
|--------------------|
									


911Tabs.com - tabs search engine
More "Satans Bed" tabs @ 911Tabs

A Guide to Tab NotationGuitar TabsGuitar ResourcesGuitar TabsPrivacy PolicyGuitar TabsContact

Online Guitar Lessons

Pearl Jam Guitar Tabs - Over 200,000 chords, guitar and bass tabs with video. Find tabs, video guitar lessons and more.