Music Guitar Tab, Tabs with MP3, ringtones, ringtone, concert tickets, guitar lessons, guitar tabs easy, guitar hero

Guitar Tabs Guitar Chords Bass Tabs
 Web Guitar Tabs
Guitar Lessons
 
Lyrics abcdefghijklmnopqrstuvwxyz # Top 100 Lyrics

Guitar Tabs
Guitar Tab






click on, click off


Tab for "Sad" - Pearl Jam Rating 4Print Guitar Tabs
select alternative YouTube videos below...
Tweak the search term to refine the YouTube video results:         
Share on Facebook

Learn to play this song and others via online guitar lessons @ JamPlay.com!

-|----------------------------------------------------------------------------|
-|----------------------------------------------------------------------------|
-|--2-2---2-2-0-2---0-2--2-2-3-3/5-3-2-0-------2---0-2-0----2---0-2-2---------|
-|--0-0---0-0-0-0---0-0--0-0-0-0-0-0-0-0---3-3---3--------2---2---------------|
-|----------------------------------------------------------------------------|
-|----------------------------------------------------------------------------|


-|--5--------------------------------------5--------------3-------------5-----|
-|--3--------------------------------------3--------------3-------------3-----|
-|--2--------------------------------------5--------------5-------------5-----|
-|--0-------------------------------------------------------------------------|
-|----------------------------------------------------------------------------|
-|----------------------------------------------------------------------------|


-|----------------------------------------------------------------------------|
-|----------------------------------------------------------------------------|
-|--7-7--7-7-7--7-7--7-7-7--10-10--10-10-10---6-6--6-6-6-6--------------------|
-|--7-7--7-7-7--7-7--7-7-7--10-10--10-10-10---7-7--7-7-7-7--------------------|
-|--5-5--5-5-5--5-5--5-5-5---8--8---8--8--8---7-7--7-7-7-7--------------------|
-|--------------------------------------------5-5--5-5-5-5--------------------|


-|----------------------------------------------------------------------------|
-|----------------------------------------------------------------------------|
-|---7-7--7-7--7--6--6-6--6-6-6---7-7--7-7-7---10-10-10--10-10-10-------------|
-|---8-8--8-8--8--7--7-7--7-7-7---7-7--7-7-7---10-10-10--10-10-10-------------|
-|---8-8--8-8--8--7--7-7--7-7-7---5-5--5-5-5----8--8--8---8--8--8-------------|
-|---6-6--6-6--6--5--5-5--5-5-5-----------------------------------------------|


-|----------------------------------------------------------------------------|
-|------------------------------15*-------------------------------------------|
-|----------------------------------------------------------------------------|
-|---0*-----------------------------------------------------------------------|
-|----------------------------------------------------------------------------|
-|----------------------------------------------------------------------------|
     tremolo picking w/ delay            into 2nd verse w/ Fill A

-|--5--5--5-5-3-5---5--3-5--5--6-6-/8-8-6--6--5-5--3--------------------------|
-|----------------------------------------------------------------------------|
-|----------------------------------------------------------------------------|
-|----------------------------------------------------------------------------|
-|----------------------------------------------------------------------------|
-|----------------------------------------------------------------------------|
   Fill A

-|----------------------------------------------------------------------------|
-|----------------------------------------------------------------------------|
-|---7--7--7-----7--5-------5---5--5----------------5--5--5-5-----------------|
-|---7--7--7-----7--5---7---5---5--5---7-7-7-7-7-7--5--5--5-5--7--7--7--7-----|
-|---5--5--5-----5--3---7---3---3--3---7-7-7-7-7-7--3--3--3-3--7--7--7--7-----|
-|----------------------5--------------5-5-5-5-5-5-------------5--5--5--5-----|
     2x                                             be -  leave it (1st time)

-|----------------------------------------------------------------------------|
-|----------------------------------------------------------------------------|
-|--10-10--10-10-10-----------------------------------------------------------|
-|--10-10--10-10-10--9--9--9--9---9--9--9----7--7---7-7-7---10-10-10-10-10----|
-|--8--8---8--8--8---7--7--7--7---7--7--7----7--7---7-7-7---10-10-10-10-10----|
-|-------------------0--0--0--0---0--0--0----5--5---5-5-5---8--8--8--8--8-----|
    w/ solo 1

-|----------------------------------------------------------------------------|
-|----------------------------------------------------------------------------|
-|---------5--7--7b9r7--5--7-----------5--7b9--7--5-7b-5-------5--7--7b9*-----|
-|---7--7---------------------7--7--7---------------------7--7----------------|
-|----------------------------------------------------------------------------|
-|----------------------------------------------------------------------------|
   Solo 1                                                        hold bend

-|----------------------------------------------------------------------------|
-|----------------------------------------------------------------------------|
-|--7*-7*-7*---7p5-----5-7-5-7b9-b9-b9-b9--------5-7--7b9-b10-----------------|
-|-----------------h7----------------------7--7-------------------------------|
-|----------------------------------------------------------------------------|
-|----------------------------------------------------------------------------|
                                                     w/ delay

-|--13-15p13h15-p13h15p13--12-13--12-13-12-13-12-10-12-13-13-12--10-12-10------|
-|-----------------------------------------------------------------------------|
-|-----------------------------------------------------------------------------|
-|-----------------------------------------------------------------------------|
-|-----------------------------------------------------------------------------|
-|-----------------------------------------------------------------------------|
    Solo under last chorus; w/ wah & delay

-|-13-12-10--12p10-12p10-12p10-8-10--10-12-12h13--10-12-13p12--12-8v----------|
-|----------------------------------------------------------------------------|
-|----------------------------------------------------------------------------|
-|----------------------------------------------------------------------------|
-|----------------------------------------------------------------------------|
-|----------------------------------------------------------------------------|


-|-------7-9--12--11--10--9-7-8-p7--------------------------------------------|
-|--10v-----------------------------------------------------------------------|
-|----------------------------------------------------------------------------|
-|----------------------------------------------------------------------------|
-|----------------------------------------------------------------------------|
-|----------------------------------------------------------------------------|
                  fade out
									


911Tabs.com - tabs search engine
More "Sad" tabs @ 911Tabs

A Guide to Tab NotationGuitar TabsGuitar ResourcesGuitar TabsPrivacy PolicyGuitar TabsContact

Online Guitar Lessons

Pearl Jam Guitar Tabs - Over 200,000 chords, guitar and bass tabs with video. Find tabs, video guitar lessons and more.