Music Guitar Tab, Tabs with MP3, ringtones, ringtone, concert tickets, guitar lessons, guitar tabs easy, guitar hero

Guitar Tabs Guitar Chords Bass Tabs
 Web Guitar Tabs
Guitar Lessons
 
Lyrics abcdefghijklmnopqrstuvwxyz # Top 100 Lyrics

Guitar Tabs
Guitar Tab






click on, click off


Tab for "Release" - Pearl Jam Rating 4Print Guitar Tabs
select alternative YouTube videos below...
Tweak the search term to refine the YouTube video results:         
Share on Facebook

Learn to play this song and others via online guitar lessons @ JamPlay.com!

-------------------------------------------------------------------------------
		     RELEASE (SOLO ARRANGEMENT) - Pearl Jam
-------------------------------------------------------------------------------
Tabbed by: Ben Aitken
Email: ben.j.aitken@gmail.com

Tuning: Standard

Intro
2x
e|--0h2p0-------------0-----------3--0--0h2p0-------------0-----------3--0--|
B|---------3-------------3---------------------3-------------3--------------|
G|------------2-------------2---------------------2-------------2-----------|
D|--0--------------0-----------0--------0--------------0-----------0--------|
A|--------------------------------------------------------------------------|
E|--------------------------------------------------------------------------|

2nd part of intro, verses
e|--0h2p0-------------0--------3p0--0h2p0-------------0--------3p0--|
B|---------3-------------3-----------------3-------------3----------|
G|------------2-------------2-----------------2----2--------2-------|
D|--0---------------------------------------------------------------|
A|-----------------2----------------3-------------------------------|
E|------------------------------------------------------------------|

1st chorus
e|--3----3--3--3--2----2--2--2--0----0--0--0--0--0--|
B|--3----3--3--3--3----3--3--3--3----3--3--3--3--3--|
G|--2----2--2--2--2----2--2--2--2----2--2--2--2--2--|
D|--0----0--0--0------------------------------------|
A|----------------2----2--2--2--3----3--3--3--3--3--|
E|--------------------------------------------------|
		  T    T  T  T

2nd chorus
e|--3----3--3--3--2----2--2--2--0----0--0--0--0--0--|
B|--3----3--3--3--3----3--3--3--1----1--1--1--1--1--|
G|--2----2--2--2--4----4--4--4--0----0--0--0--0--0--|
D|--0----0--0--0--4----4--4--4--2----2--2--2--2--2--|
A|----------------2----2--2--2--3----3--3--3--3--3--|
E|--------------------------------------------------|

3rd chorus
e|--2----2--2--2--2----2--2--2--0----0--0--0--0--0--|
B|--3----3--3--3--3----3--3--3--1----1--1--1--1--1--|
G|--2----2--2--2--4----4--4--4--0----0--0--0--0--0--|
D|--0----0--0--0--4----4--4--4--2----2--2--2--2--2--|
A|----------------2----2--2--2--3----3--3--3--3--3--|
E|--------------------------------------------------|

Ending
e|--2-------------2-------------0-------------------|
B|--3-------------3-------------1-------------------|
G|--2-------------4-------------0-------------------|
D|--0-------------4-------------2-------------------|
A|----------------2-------------3-------------------|
E|--------------------------------------------------|


| T  fret root note with thumb
| /  slide up
| \  slide down
| h  hammer-on
| p  pull-off
| ~  vibrato
| +  harmonic
| x  Mute note
===============================================================================
									


911Tabs.com - tabs search engine
More "Release" tabs @ 911Tabs

A Guide to Tab NotationGuitar TabsGuitar ResourcesGuitar TabsPrivacy PolicyGuitar TabsContact

Online Guitar Lessons

Pearl Jam Guitar Tabs - Over 200,000 chords, guitar and bass tabs with video. Find tabs, video guitar lessons and more.