Music Guitar Tab, Tabs with MP3, ringtones, ringtone, concert tickets, guitar lessons, guitar tabs easy, guitar hero

Guitar Tabs Guitar Chords Bass Tabs
 Web Guitar Tabs
Guitar Lessons
 
Lyrics abcdefghijklmnopqrstuvwxyz # Top 100 Lyrics

Guitar Tabs
Guitar Tab






click on, click off


Tab for "Once" - Pearl Jam Rating 4Print Guitar Tabs
select alternative YouTube videos below...
Tweak the search term to refine the YouTube video results:         
Share on Facebook

Learn to play this song and others via online guitar lessons @ JamPlay.com!

---------------------------------|
---------------------------------|
-1-1-1-1-1-1---------------------|
---------------------------------|

-----------------------------------|
-----------------------------------|
--0-0-3-3-5b-----------------------|
-----------------------------------|
I admit it...whats to say
are we livin...without pain

-------------------------------------|
----------------/7-------------------|
-0~------0~-----------0~-------------|
-------------------------------------|
backseat lover on the side of the road
gotta bomb in my temple thas gonna explode
16 gauge buried under my clothes i pray...

----------------------------------|
----------------------------------|
-1-1-1-1-1-1----------------------|
----------------------------------|


----------------------------------|
----------------------------------|
----------------------------------|
-3-3-3-3-5-5-5-5-6-6-6-8-8-8-8----|
once..upon a time
i could control myself

----------------------------------|
----------------------------------|
---------5-5-5-5------------------|
-3-3-3-3---------6-6-6-6-8-8-8-8--|
once...upon a time
i could lose myself

----------------------------------|
-5-5-5-5----5-5-5-5---------------|
--------4-3--------4-3------------|
----------------------------------|


once...
									


911Tabs.com - tabs search engine
More "Once" tabs @ 911Tabs

A Guide to Tab NotationGuitar TabsGuitar ResourcesGuitar TabsPrivacy PolicyGuitar TabsContact

Online Guitar Lessons

Pearl Jam Guitar Tabs - Over 200,000 chords, guitar and bass tabs with video. Find tabs, video guitar lessons and more.