Music Guitar Tab, Tabs with MP3, ringtones, ringtone, concert tickets, guitar lessons, guitar tabs easy, guitar hero

Guitar Tabs Guitar Chords Bass Tabs
 Web Guitar Tabs
Guitar Lessons
 
Lyrics abcdefghijklmnopqrstuvwxyz # Top 100 Lyrics

Guitar Tabs
Guitar Tab






click on, click off


Tab for "Man Of The Hour" - Pearl Jam Rating 4Print Guitar Tabs
select alternative YouTube videos below...
Tweak the search term to refine the YouTube video results:         
Share on Facebook

Learn to play this song and others via online guitar lessons @ JamPlay.com!

Author/Artist: Pearl Jam
Title: Man of the Hour
Album: Big Fish
Transcribed by: Rick
Written For: http://www.giventowail.com
Email: rick@giventowail.com

-|----------------------3--0-----------------(3)----------------------3--0----
-|--1--1----3---1-3---0-3----3--1--1----3---1-3---1--1---3---1-3---0--3----3--
-|--0--0--0---0-----0-----------0--0--0---0---0---0--0-0---0-----0------------
-|----------------------------------------------------------------------------
-|--3--3----3-3-3-3----(2)------3--3----3-3-3-----3--3---3-3-3-3------2-------
-|----------------------3-(3)----------------(3)----------------------3--3-3--
   Intro/Verse w/ variations                                        

-|----------------0-----------------------------------------------------------
-|--1--1-1--0-1-3---3----1------------3---------------------------------------
-|--2--2-2--2-2-0-----0--2--2-2---0-------------------------------------------
-|--2--------------------2------2---------------------------------------------
-|--0-----------2--------0-----(2)--------------------------------------------
-|-------------(3)-------------(3)--------------------------------------------
                                                                              

-|---1---3---1-----0---------3----------------1-0-1-----------------1-0-1-----
-|---1---1---1--------3----1---1--3-(3)-0-1-1--------0---0--1-3------------0--
-|---2------------------(2)----0--0-(2)-----2--------2---2--2-2---------------
-|---3-------------------2-----x--x--0------3---------------------------------
-|--------------2--2-----0-----2--2------------------------------2---------2--
-|----------------------------(3)(3)-2----------------------------------------
    Chorus w/ variations                    man of the hour..                       

-|-------------------------------------|-|------------------------------------
-|--1--3----1--------------------------|-|--10\8------------------------------
-|----------0--------------------------|-|--------5/7-------------------------
-|----------2--------------------------|-|--------------9\5-------------------
-|----------3--------------------------|-|------------------------------------
-|-------------------------------------|-|------------------------------------
              back to verse w/ lead 1      Lead 1 w/ slide      into Chorus   

-|-------0--------------------------3-3-3--3-3-3--3-3-------------------------
-|----3----1--3--3-3--3--3-3--3-3---3-3-3--3-3-3--3-3-------------------------
-|--0-0-------0--0-0--0--0-0--0-0---0-0-0--0-0-0--0-0-------------------------
-|----------------------------------------------------------------------------
-|--------------------3--3-3--3-3---3-3-3--3-3-3--3-3-------------------------
-|----------------------------------------------------------------------------
    Pre-Bridge                                                                

-|------0-0--0-0--0---1--1-1----------------------------------------1--1-1----
-|------0-0--0-0--0---1--1-1---1-1---1--1-1--1-1-------3-3--1-3-3---1--1-1----
-|--1--------1-1--1---2--2-2---2-2---0--0-0--0-0-------2-2--2-2-2---2--2-2----
-|--2--------2-2--2---3--3-3---3-3---2--2-2--2-2----0--0-0--0-0-0---3--3-3----
-|--2--------2-2--2---3--3-3---3-3---3--3-3--3-3----x--x-x--x-x-x---3--3-3----
-|--0--------0-0--0---1--1-1------------------------2--2-2--2-2-2---1--1-1----
   Bridge to end                                                        

-|--1-1---0---0-0--0-0-0----------------------------------1--0-1----------1---
-|--1-1---0---0-0--0-0-0---1--1--1----1--1--1-------3-----1------0-1-3--------
-|--2-2---1---1-1--1-1-1---2--2--2----0--0--0---2-2---2---2-------------------
-|--3-3---2---2-2--2-2-2---2--2--2----2--2--2---0-0-------3------------0------
-|--3-3---2---2-2--2-2-2---0--0--0----x--x--x---x-x-------3------------2------
-|--1-1---0---0-0--0-0-0--------------3--3--3---2-2---------------------------
                                                                              

-|--0-1------------1-0--1--------------1-0-1----------------------------------
-|------0---1-3-----------0---1--3-----------0--1--3--------------------------
-|----------------------------------------------------------------------------
-|---------------3-------------------0----------------------------------------
-|-----------------------------------2----------------------------------------
-|----------------------------------------------------------------------------

-|----------------------3--0-----------------(3)----------------------3--0----
-|--1--1----3---1-3---0-3----3--1--1----3---1-3---1--1---3---1-3---0--3----3--
-|--0--0--0---0-----0-----------0--0--0---0---0---0--0-0---0-----0------------
-|----------------------------------------------------------------------------
-|--3--3----3-3-3-3----(2)------3--3----3-3-3-----3--3---3-3-3-3------2-------
-|----------------------3-(3)----------------(3)----------------------3--3-3--
   Outtro also w/ variations                                             

-|----------------0---------------3-------------------------------------------
-|--1--1-1--0-1-3---3----1--0-1---3-------------------------------------------
-|--2--2-2--2-2-0-----0--2--2-2---0-------------------------------------------
-|--2--------------------2--------0-------------------------------------------
-|--0-----------2--------0--------2-------------------------------------------
-|-------------(3)----------------3-------------------------------------------
                                                        


Tab (c) 2003 - Given To Wail
									


911Tabs.com - tabs search engine
More "Man Of The Hour" tabs @ 911Tabs

A Guide to Tab NotationGuitar TabsGuitar ResourcesGuitar TabsPrivacy PolicyGuitar TabsContact

Online Guitar Lessons

Pearl Jam Guitar Tabs - Over 200,000 chords, guitar and bass tabs with video. Find tabs, video guitar lessons and more.