Music Guitar Tab, Tabs with MP3, ringtones, ringtone, concert tickets, guitar lessons, guitar tabs easy, guitar hero

Guitar Tabs Guitar Chords Bass Tabs
 Web Guitar Tabs
Guitar Lessons
 
Lyrics abcdefghijklmnopqrstuvwxyz # Top 100 Lyrics

Guitar Tabs
Guitar Tab






click on, click off


Tab for "Love Reign Oer Me" - Pearl Jam Rating 4Print Guitar Tabs
select alternative YouTube videos below...
Tweak the search term to refine the YouTube video results:         
Share on Facebook

Learn to play this song and others via online guitar lessons @ JamPlay.com!

Artist: Pearl Jam
Title: Love, Reign O'er Me
Album: 2006 Fanclub Single/Reign Over Me Soundtrack
Transcribed by: allstar340

Both guitars Dropped D: DADGBE

-|--3-----3-----3-----3------|-|------1----------------1----------------------|
-|----3-----3-----3-----3----|-|------3----------------3----------------------|
-|------0-----0-----0-----0--|-|------2----------------2----------------------|
-|---------------------------|-|------0----------------0----------------------|
-|---------------------------|-|------0----------------0----------------------|
-|---------------------------|-|------0----------------0----------------------|

G1 Piano for guitar      2x     Only love can make it rain the way the

-|--3---------------------3----------1----------------1-----------------------|
-|--3---------------------3----------3----------------3-----------------------|
-|--0---------------------0----------2----------------2-----------------------|
-|--2---------------------2----------0----------------0-----------------------|
-|--3---------------------3---------------------------------------------------|
-|--x---------------------x---------------------------------------------------|

 beach is kissed by the sea.  Only love can make it rain like the sweat of

-|--3----------------------3--------|-|--1------------------------------------|
-|--3----------------------3--------|-|--3------------------------------------|
-|--0----------------------0--------|-|--2---------------------------3--------|
-|--2----------------------2--------|-|--0---------------------------3--------|
-|--3----------------------3--------|-|--0---------------------------1--------|
-|----------------------------------|-|---------------------------------------|

lovers laying in the fields           Love             Reign o'er me

-|----------------------------------|-|--13-12-10-8---------------------------|
-|----------------------------------|-|--------------10-8-6-5-----------------|
-|----------------------------------|-|-------------------------7-5-3-2--0----|
-|----------------------------------|-|------------------------------------3--|
-|----------------------------------|-|---------------------------------------|
-|----------------------------------|-|---------------------------------------|
                                        G2

-|--------------1-------------------------------------------------------------|
-|--------------3---------------------------------------------------------3---|
-|--------------2-----------------------3---------------------------------2---|
-|--------------0-----------------------3-----------------5---------------2---|
-|--------------0-----------------------1-----------------5---------------0---|
-|--------------------------------------------------------5-------------------|

Love            Reign o'er me  Reign o'er me.. reign o'er me

-|--------------13-12-10-8--------------------------------3-------------------|
-|--------------------------10-8-6----5-------------------3-------------------|
-|----------------------------------------7--5-3-2--------0-------------------|
-|-2b3r2p0------------------------------------------------0---------------2---|
-|------------------------------------------------------------------------0---|
-|----------------------------------------------------------------------------|
   G2

-|--------------------------------------------------------||------1-----------|
-|-3--3-3-3--3-3-3--3-3-3--3-3-3--2--2-2-2--2-2-2--2-2-2--||------3-----------|
-|-2--2-2-2--2-2-2--2-2-2--2-2-2--2--2-2-2--2-2-2--2-2-2--||------2-----------|
-|-2--2-2-2--2-2-2--2-2-2--2-2-2--2--2-2-2--2-2-2--2-2-2--||------0-----------|
-|-0--0-0-0--0-0-0--0-0-0--0-0-0--0--0-0-0--0-0-0--0-0-0--||------0-----------|
-|--------------------------------------------------------||------0-----------|

Only love can

-|------------1-------------------3-----------3-----------1-------------------|
-|------------3-------------------3-----------3-----------3-------------------|
-|------------2-------------------0-----------0-----------2-------------------|
-|------------0-------------------2-----------2-----------0-------------------|
-|--------------------------------3-----------3-------------------------------|
-|----------------------------------------------------------------------------|

bring the rain that makes you yearn to the sky.  Only love can bring the

-|--1-------------------3------------3-------|-|--1---------------------------|
-|--3-------------------3------------3-------|-|--3---------------------------|
-|--2-------------------0------------0-------|-|--2---------------------------|
-|--0-------------------2------------2-------|-|--0---------------------------|
-|--0-------------------3------------3-------|-|--0---------------------------|
-|--0----------------------------------------|-|--0---------------------------|

rain that falls like tears from on high.       Love            Reign o'er

-|-------------------------------------------|-|--13-12-10-8------------------|
-|-------------------------------------------|-|--------------10-8-6v-8-------|
-|-------------------------------------------|-|------------------------7v----|
-|-------------------------------------------|-|------------------------------|
-|-------------------------------------------|-|------------------------------|
-|-------------------------------------------|-|------------------------------|
                                                 G2

-|------------------------------------1---------------------------------------|
-|------------------------------------3---------------------------------------|
-|---3--------------------------------2-------------------------3-------------|
-|---3--------------------------------0-------------------------3-------------|
-|---1--------------------------------0-------------------------1-------------|
-|----------------------------------------------------------------------------|

me       Reign on.. Rain on me.   Love!                Reign o'er me

-|-----------8b9r8--------------------13-12-10-8------------8b9r8-------8b9r8--|
-|-----------------6----------------------------------10vv--------6------------|
-|---7vv-------------7vvv-----------------------10--10vv----------7v-----------|
-|-----------------------------------------------------------------------------|
-|-----------------------------------------------------------------------------|
-|-----------------------------------------------------------------------------|

G2                                                                   Reign

-|----------------------------------------------------------------------------|
-|----------------------------------------------------------------------------|
-|--3---------------------------------2-------------2-------------------------|
-|--3---------------5-----------------2-------------2-------------------------|
-|--1---------------5-----------------0-------------0-------------------------|
-|------------------5---------------------------------------------------------|

o'er me  Rain on me..   Reign o'er me

-|-----------------------------------------------------------------------------|
-|------------------------------------------65--3------------------------------|
-|-7v---------------0------------------2----x-x--x---2-------------------------|
-|------------------0------------------2----32--0---2--------------------------|
-|-------------------------------------0-------------0-------------------------|
-|-----------------------------------------------------------------------------|

 o'er me

-||-----5---5---5h6-6-6p5-------5---5--6-6-6p5----8----8---8------------5-----|
-||-----------------------6--------------------6----6----6---6------6-----6---|
-||-------5------------------/5---5------------------------------/7---7-------|
-||-/7------------------------------------------------------------------------|
-||---------------------------------------------------------------------------|
-||---------------------------------------------------------------------------|

 Bridge (lyrics omitted)

-|----5-------5--5--------------------5---5--6-6-6p5-------5---5----6-6-6p5---|
-|------6-----8--8--10-10-10-10----------------------6----------------------6-|
-|-7------7---7--7---7--7--7--7----/5---5---------------/5---5---5------------|
-|----------------------------------------------------------------------------|
-|----------------------------------------------------------------------------|
-|----------------------------------------------------------------------------|

-|-8------8-------8-------------------------------------|---------------------|
-|---6------6-------6----8-----8-----10-10-10-10-10-10--|--6--6--8-8--8-8--8--|
-|------5------5------5----7-----7----7--7--7--7--7--7--|--5--5--7-7--7-7--7--|
-|---------------------------5-----5--------------------|--3--3--5-5--5-5--5--|
-|------------------------------------------------------|--3--3--5-5--5-5--5--|
-|------------------------------------------------------|--3--3--5-5--5-5--5--|

-|-----------------------------5---------------------------------|--1--1-1-1--|
-|-6--6--8-8-8-8--8-6------6-----6----8-----8-----/10-----10-----|--3--3-3-3--|
-|-5--5--7-7-7-7--7-5---/7---7-----7----7-----7-------9------9---|--2--2-2-2--|
-|-3--3--5-5-5-5--5-3---------------------5-----5-------7------7-|--0--0-0-0--|
-|-3--3--5-5-5-5--5-3--------------------------------------------|--0--0-0-0--|
-|-3--3--5-5-5-5--5-3--------------------------------------------|------------|

2x   3:07

-|-------------------------------------------------------------|--------------|
-|-------------------------------------------------------------|--------------|
-|-------------------------------------------------------------|--------------|
-|-------------------------------------------------------------|--/7vv-----5--|
-|-------------------------------------------------------------|--------/5----|
-|-------------------------------------------------------------|--------------|
                                                                 3:07

-|-----------------3--3-3-3--3-3-3-----1--------------------------------------|
-|-----------------3--3-3-3--3-3-3-----3--------------------------------------|
-|-----------------0--0-0-0--0-0-0-----2--------------------------------------|
-|-----------------2--2-2-2--2-2-2-----0--------------------------------------|
-|-----------------3--3-3-3--3-3-3--------------------------------------------|
-|----------------------------------------------------------------------------|

-|----------------------------------------------------------------------------|
-|----------------------------------------------------------------------------|
-|--------------------------------------14vv------10-12-10h12-10h12-10h12--14-|
-|5h7vv-------3--3-5vv---5h7--3-0---/14-------/12-----------------------------|
-|--------/5------------------------------------------------------------------|
-|----------------------------------------------------------------------------|
   G2

-|------------3----------3--|--1----------------------------------------------|
-|------------3----------3--|--3----------------------------------------------|
-|------------0----------0--|--2---------------------------3------------------|
-|------------2----------2--|--0---------------------------3------------------|
-|------------3----------3--|--0---------------------------1------------------|
-|--------------------------|--0----------------------------------------------|

-|----------------12-13-15v-|-13-12-10-8--------------------------------------|
-|------------15------------|--------------10-8-6-----5-----------------------|
-|14-14-14-14---------------|------------------------------7--5--3--2--0------|
-|--------------------------|-------------------------------------------------|
-|--------------------------|-------------------------------------------------|
-|--------------------------|-------------------------------------------------|

 G2                          Love!             Reign o'er me   Rain on me

-|------------1---------------------------------------------------------------|
-|------------3---------------------------------------------------------------|
-|------------2-----------------------3---------------------------------------|
-|------------0-----------------------3-----------5--------------7------------|
-|------------0-----------------------1-----------5--------------7------------|
-|------------0-----------------------------------5--------------7------------|

-|------------13-12-10-8--------------------------8b9r8-----------------------|
-|------------------------10-8-6-8--8b9r8p6---6v--------6---------------------|
-|---5-3-2-0--------------------------------7-------------7vvv----------------|
-|---------------------------------------------------------------7------------|
-|---------------------------------------------------------------7------------|
-|---------------------------------------------------------------7------------|

 G2         Love               Rain on me

-|-------------------------------------------------------1--------------------|
-|-3--3-3-3--3-3-3--3-3-3--3-3-2--2-2-2--2-2-2--2-2-2----3--------------------|
-|-2--2-2-2--2-2-2--2-2-2--2-2-2--2-2-2--2-2-2--2-2-2----2--------------------|
-|-2--2-2-2--2-2-2--2-2-2--2-2-2--2-2-2--2-2-2--2-2-2----0--------------------|
-|-0--0-0-0--0-0-0--0-0-0--0-0-0--0-0-0--0-0-0--0-0-0----0--------------------|
-|-------------------------------------------------------0--------------------|
                                                         Love

-|-----------------------------------------------------------------------------|
-|-----------------------------------------------------------------------------|
-|---x-------------------------------------------------------------------------|
-|---x-----------0-------------------------------------------------------------|
-|----------------0------------------------------------------------------------|
-|----------------0------------------------------------------------------------|

(fret noise)      let ring
									


911Tabs.com - tabs search engine
More "Love Reign Oer Me" tabs @ 911Tabs

A Guide to Tab NotationGuitar TabsGuitar ResourcesGuitar TabsPrivacy PolicyGuitar TabsContact

Online Guitar Lessons

Pearl Jam Guitar Tabs - Over 200,000 chords, guitar and bass tabs with video. Find tabs, video guitar lessons and more.