Music Guitar Tab, Tabs with MP3, ringtones, ringtone, concert tickets, guitar lessons, guitar tabs easy, guitar hero

Guitar Tabs Guitar Chords Bass Tabs
 Web Guitar Tabs
Guitar Lessons
 
Lyrics abcdefghijklmnopqrstuvwxyz # Top 100 Lyrics

Guitar Tabs
Guitar Tab






click on, click off


Tab for "Leash" - Pearl Jam Rating 4Print Guitar Tabs
select alternative YouTube videos below...
Tweak the search term to refine the YouTube video results:         
Share on Facebook

Learn to play this song and others via online guitar lessons @ JamPlay.com!

-------------------------------------------------------------------------------
			     LEASH - Pearl Jam
-------------------------------------------------------------------------------
Tabbed by:Toimintasika
Email:

Tuning: Standard

intro/verse
gtr.1
e|-----------------------------------------------------------------------------|
B|-----------------------------------------------------------------------------|
G|-----------------------------------------------------------------------------|
D|-----------------------------------------------------------------------------|
A|-------7/9-9-9-7/9-9-9-7/9-9-9-9-9-9-9-9-9-9---------------------------------|
E|-------5/7-7-7-5/7-7-7-5/7-7-7-7-7-7-7-7-7-7---------------------------------|
gtr.2
e|-------x-x-x-x-x-x-x-x--------------------------------------------------------|
B|-------x-x-x-x-x-x-x-x--------------------------------------------------------|
G|-------x-x-x-x-x-x-x-x--------14-16-------------------------------------------|
D|-------------------------------------14-16~-----------------------------------|
A|------------------------------------------------------------------------------|
E|------------------------------------------------------------------------------|
chorus
gtr.1
  |--------------1x-----------------------------------------------------------------|
e|------------------------------ |--------------------------------------------------|
B|-------------------------------|--------------------------------------------------|
G|------------------------------| --------------------------------------------------|
D|------------------------------| --12-10-10-10-8--10-10-10-------------------------|
A|----7-7-7-10--11--12--7--10--| --10-10-10-10-10-10-10-10--------------------------|
E|-----5-5-5-8--9---10--5--8--- | --8--8--8--8--8--8--8--8--------------------------|
gtr.2
  |-------------1x---------------------------------------------------------------|
e|--------------------------------|----------------------------------------------|
B|--------------------------------|----------------------------------------------|
G|-------------------------------|-----------------------------------------------|
D|----7-7-7-10--11--12--7--10---|------------------------------------------------|
A|-------------------------------|-10-10-10-10-10-10-10-10-----------------------|
E|-------------------------------|--8--8--8--8--8--8--8--8-----------------------|

| /  slide up
| \  slide down
| h  hammer-on
| p  pull-off
| ~  vibrato
| +  harmonic
| x  Mute note
===============================================================================
									


911Tabs.com - tabs search engine
More "Leash" tabs @ 911Tabs

A Guide to Tab NotationGuitar TabsGuitar ResourcesGuitar TabsPrivacy PolicyGuitar TabsContact

Online Guitar Lessons

Pearl Jam Guitar Tabs - Over 200,000 chords, guitar and bass tabs with video. Find tabs, video guitar lessons and more.