Music Guitar Tab, Tabs with MP3, ringtones, ringtone, concert tickets, guitar lessons, guitar tabs easy, guitar hero

Guitar Tabs Guitar Chords Bass Tabs
 Web Guitar Tabs
Guitar Lessons
 
Lyrics abcdefghijklmnopqrstuvwxyz # Top 100 Lyrics

Guitar Tabs
Guitar Tab






click on, click off


Tab for "Last Exit" - Pearl Jam Rating 4Print Guitar Tabs
select alternative YouTube videos below...
Tweak the search term to refine the YouTube video results:         
Share on Facebook

Learn to play this song and others via online guitar lessons @ JamPlay.com!

Intro jam thingy:
|---10-----11------12--------13--------13--14--------x--|
|-8------9------10--------11--------12-------------x----|
|------8------9--------10--------11--------------x------|
|-------------------------------------------------------|
|-------------------------------------------------------|
|-------------------------------------------------------|

Hit some random open notes and stuff like that, then the main riff:
|---------------|
|---------------|
|-5---------5---|
|-5-4-4-5-5-5-4-|
|-3-4-4-5-5-3-4-|
|---2-2-3-3---2-|

Chorus:
|-----|
|-----|
|-----|
|-----|
|-2---|
|---2-|

|--------------------------------|
|--------------------------------|
|-10-9-5-7-9-10-9-5-4-10-9-5-7-9-|
|-10-9-5-7-9-10-9-5-4-10-9-5-7-9-|
|-8--7-3-5-7-8--7-3-2-8--7-3-5-7-|
|--------------------------------|

Solo thingy (all tremolo picked).
|----------------------------------------------------|
|-12-12-12-12-12-12-12-12-10-10-10-8-8-7-8-8-8-8-8-8-|
|-11-11-11-11-11-11-11-11-9--9--9--7-7-7-7-7-7-7-7-7-|
|----------------------------------------------------|
|----------------------------------------------------|
|----------------------------------------------------|

Interlude
|--------------------------------|
|--------------------------------|
|-1-1-1-1-1-1-1-1-1-1-1-1-1-1-1--|
|-0-0-0-0-0-0-0-0-0-0-0-0-0-0-0--|
|--------------------------------|
|--------------------------------|
pm-------------------------------|
during the non muted part, the "let my spirit pass" line is began, kicking into the main 
on "paaaaaaaaaaasssss"
									


911Tabs.com - tabs search engine
More "Last Exit" tabs @ 911Tabs

A Guide to Tab NotationGuitar TabsGuitar ResourcesGuitar TabsPrivacy PolicyGuitar TabsContact

Online Guitar Lessons

Pearl Jam Guitar Tabs - Over 200,000 chords, guitar and bass tabs with video. Find tabs, video guitar lessons and more.