Music Guitar Tab, Tabs with MP3, ringtones, ringtone, concert tickets, guitar lessons, guitar tabs easy, guitar hero

Guitar Tabs Guitar Chords Bass Tabs
 Web Guitar Tabs
Guitar Lessons
 
Lyrics abcdefghijklmnopqrstuvwxyz # Top 100 Lyrics

Guitar Tabs
Guitar Tab






click on, click off


Tab for "Inside Job" - Pearl Jam Rating 4Print Guitar Tabs
select alternative YouTube videos below...
Tweak the search term to refine the YouTube video results:         
Share on Facebook

Learn to play this song and others via online guitar lessons @ JamPlay.com!

This tab wasn't available yet, so I figured it out.
See you august 29th @ Gelredome, The Netherlands.
-KNDW

  B* E@7th 
e----------
B-1--9-----
G-0--9-----
D-0--9-----
A-2--7-----
E----------

INTRO

[0:00 - 1.17] C(m) Em

[1:18 - 1:37] D D C - D D Em (x2)

[1:38 - 1:57] C Em (x2)


C				Em
Underneath this smile lies everything
C				  Em
All my hopes and anger, pride and shame
C			  Em
Make myself a pact not to shut doors on the past Just 
C	       Em
for today I am free


     C	 B*   Am7 D
I'll not lose my  faith
	C      B*  Am7	D
It's an inside job to-	day
  C	    B*  Am7	C	Em C Em
I know this one thing 	well…
 

  C					      Em
I used to try and kill love, it was the highest sin
C			     Em
Breathing insecurity out and in
C				     Em
Searching hope, I'm shown the way to run straight
			     C	       Em
Pursuing the greater way for all human light.

      C			      Em
How I choose to feel is how I am.
      C			      Em
How I choose to feel is how I am.


     C	 B*   Am7 D
I'll not lose my  faith
	C      B*  Am7	D
It's an inside job to-	day


C		B*
Holding on, the light of night
Am7	       A#              Am7         A#
On my knees to rise and fix my broken soul Again


	E D C D (x6, E@7th D@5th C@3rd) 

Solo (x2)
         
|-----------------------------|----------------------|
|--15b17-r15--13----12--------|----------------------|
|-----------------------12----|----------------------|
|-----------------------------|--12----L-------------|
|-----------------------------|----------------------|
|-----------------------------|----------------------|

|-----------------------------|--15------------------|
|--15b17-r15--13----12--------|----------15----------|
|-----------------------12----|----------------------|
|-----------------------------|----------------------|
|-----------------------------|----------------------|
|-----------------------------|----------------------|
     
       C     B* Am7 D
Let me run into the rain
	C     B*    Am7 D 
To be a human light a - gain

       C     B* Am7 D
Let me run into the rain
	   C     B*    Am7  D
To shine a human light to - day

C    B*    Am7  F      Am7 C    F     Am7 C    D
Life comes from with - in  your heart and de - sire
C    B*    Am7  F      Am7 C    F     Am7 C    D
Life comes from with - in  my   heart and de - sire


									


911Tabs.com - tabs search engine
More "Inside Job" tabs @ 911Tabs

A Guide to Tab NotationGuitar TabsGuitar ResourcesGuitar TabsPrivacy PolicyGuitar TabsContact

Online Guitar Lessons

Pearl Jam Guitar Tabs - Over 200,000 chords, guitar and bass tabs with video. Find tabs, video guitar lessons and more.