Music Guitar Tab, Tabs with MP3, ringtones, ringtone, concert tickets, guitar lessons, guitar tabs easy, guitar hero

Guitar Tabs Guitar Chords Bass Tabs
 Web Guitar Tabs
Guitar Lessons
 
Lyrics abcdefghijklmnopqrstuvwxyz # Top 100 Lyrics

Guitar Tabs
Guitar Tab






click on, click off


Tab for "In My Tree" - Pearl Jam Rating 4Print Guitar Tabs
select alternative YouTube videos below...
Tweak the search term to refine the YouTube video results:         
Share on Facebook

Learn to play this song and others via online guitar lessons @ JamPlay.com!

#-----------------------------------------------------------------------------#
#-- File created with Instab - http://www.pconline.com/~smcarey/instab.html --#
#-----------------------------------------------------------------------------#

Author/Artist: pearl jam
Title: in my tree
Transcribed by: Saverain
Email: saverain@hotmail.com

v strum down
^ strum up

you'll have to find the lyrics somewhere else. I are not to good words

-|----------------------|-----------------------------------------------------|
-|----------------------|-----------------------------------------------------|
-|----------------------|-----------------------------------------------------|
-|----------------------|-----------------------------------------------------|
-|--7-----9-------------|--7--7-7--7-7-7-9--9-9--9-9-9------------------------|
-|--------------5-----7-|------------------------------5--5-5--5-5-5-7--------|
  base intro               v  v ^  ^ v ^  continue

------------|-------------------------------------------------------|---------|
------------|-------------------------------------------------------|---------|
------------|-9--9-v-----------9\-9-v-----9-------------------------|---------|
------------|----9--v----------9\-9--v--------------------------9-\-|---------|
------------|----7-v--------------7-v------------2-2-2-2-2-2----7-\-|---------|
-7-7--7-7-7-|----7--v-------------7--v-----------0-0-0-0-0-0----7-\-|---------|
                 end

-|----------------------------------------------------------------------------|
-|------------------------0--0-0-0--0--0-0-0-0-0------------------------------|
-|-9--9-9-9--9--9-9-9-9-9-8--8-8-8--8--8-8-8-8-8-9--9-9-9--9--9-9-9-9-9--9----|
-|-9--9-9-9--9--9-9-9-9-9-6--6-6-6--6--6-6-6-6-6-7--7-7-7--7--7-7-7-7-9--9----|
-|-7--7-7-7--7--7-7-7-7-7-7--7-7-7--7--7-7-7-7-7-7--7-------------0-0-7--7----|
-|-0--0-0-0--0--0-0-0-0-0-0--0-0-0--0--0-0-0-0-0-5----------------------------|
   v  ^ v ^  ^  ^ v ^ v ^ v  continue rythm  chorus

------------------|-------------3------0-----0-----------------3----0---------|
------------------|-------------2------3-----0--0--------------2----3---------|
-9-9--9-9-9-9-x-x-|-------------0------3-----1--1--------------0----3---------|
-9-9--9-9-9-9-x-x-|--9-\--------0------3-----2-------9-9-9-9\--0----3---------|
------------0-0-0-|--7-\--------3------0-----2-------7-7-7-7\--3----0---------|
------------------|--7-\--------3------0-----0-------7-7-7-7\--3----0---------|


--0---------------3-----0-----0--------------------3------0-----0-|--------|--|
--0--0------------2-----3-----0--0-----------------2------3-----0-|--0-----|--|
--1--1------------0-----3-----1--1-----------------0------3-----1-|--1-----|--|
--2------9--9-9\--0-----3-----2--------9-9-\-------0------3-----2-|--2--6x-|--|
--2------7--7-7\--3-----0-----2--------7-7-\-------3------0-----2-|--2-----|--|
--0------7--7-7\--3-----0-----0--------7-7-\-------3------0-----0-|--0-----|--|


-|----------------------------------|----------------------------------------|
-|----------------------------------|----------------------------------------|
-|-9--9-----------------------------|--------9-------------------5--5-5-x-x--|
-|----9-------------9-----------x-x-|-9--9-9-9--10-10-x-x-9--9-9-5--5-5-x-x--|
-|----7-------------7-7-7-7-7-7-x-x-|-9--9-9-7--10-10-x-x-9--9-9-3--3-3-x-x--|
-|------------------7-7-7-7-7-7-x-x-|-7--7-7-7--9--9--x-x-7--7-7-------------|
                                      v  ^ v ^  ^  v  v ^ continue

------------|------------|----------------------------------------------------|
------------|------------|----------------------------------------------------|
-5--5-5-5-5-|------------|----------------------------------------------------|
-5--5-5-5-5-|------------|----------------------------------------------------|
-3--3-3-3-3-|------------|----------------------------------------------------|
------------|------------|----------------------------------------------------|
 end          chorus
									


911Tabs.com - tabs search engine
More "In My Tree" tabs @ 911Tabs

A Guide to Tab NotationGuitar TabsGuitar ResourcesGuitar TabsPrivacy PolicyGuitar TabsContact

Online Guitar Lessons

Pearl Jam Guitar Tabs - Over 200,000 chords, guitar and bass tabs with video. Find tabs, video guitar lessons and more.