Music Guitar Tab, Tabs with MP3, ringtones, ringtone, concert tickets, guitar lessons, guitar tabs easy, guitar hero

Guitar Tabs Guitar Chords Bass Tabs
 Web Guitar Tabs
Guitar Lessons
 
Lyrics abcdefghijklmnopqrstuvwxyz # Top 100 Lyrics

Guitar Tabs
Guitar Tab






click on, click off


Tab for "In Hiding" - Pearl Jam Rating 4Print Guitar Tabs
select alternative YouTube videos below...
Tweak the search term to refine the YouTube video results:         
Share on Facebook

Learn to play this song and others via online guitar lessons @ JamPlay.com!

intro:(4 times)
-----------------------------------|
-3-3-3-3-3-3-3-3/8-8-8-8-8-8-8-8-7-|
-2-2-2-2-2-2-2-2/7-7-7-7-7-7-7-7-7-|
-0-0-0-0-0-0-0-0-0-0-0-0-0-0-0-0-0-|
-----------------------------------|
-----------------------------------|

verse:                                             *
-2-2-2-2-2-3-3-2/8-8-8-8-7-7-7-7-8-8-8-8-7-7-7-7\2-2-2-2-2-2-2-2-|
-3-3-3-3-3-3-3-3/8-8-8-8-8-8-8-8-8-8-8-8-8-8-8-8\3-3-3-3-3-3-3-3-|
-2-2-2-2-2-2-2-2/7-7-7-7-7-7-7-7-7-7-7-7-7-7-7-7\2-2-2-2-2-2-2-2-|
-0-0-0-0-0-0-0-0-0-0-0-0-0-0-0-0-0-0-0-0-0-0-0-0-0-0-0-0-0-0-0-0-|
-----------------------------------------------------------------|
-----------------------------------------------------------------|

play this fill at the * every other thime the verse riff is played:
-2-3-/5---|
--------3-|
----------|
----------|
----------|
----------|


----/3-2-0---0-2------/3-2-0---0-2------/2-3---0-2------2-2-2-2-2-2-2-2-|
-3---------3-------3---------3-------3--------------3---3-3-3-3-3-3-3-3-|
-2-----------------2-----------------4--------------2---2-2-2-2-2-2-2-2-|
-0-----------------0-----------------0--------------0---0-0-0-0-0-0-0-0-|
------------------------------------------------------------------------|
------------------------------------------------------------------------|

pre-chorus
-------------------------2-2-2-2-----------------------------------|
-------------------------3-3-3-3-----------------------------------|
-6-6-6~~~---6-6\---------2-2-2-2-----------------------------------|
-7-7-7~~~---7-7\5-5-5-5------------3-3-3-x-x3---3-3-3-3-x-x3---3---|
-7-7-7~~~---7-7\5-5-5-5------------3-3-3-x-x3---3-3-3-3-x-x3---3---|
-5-5-5~~~---5-5\3-3-3-3--2-2-2-2---1-1-1-x-x1-0-1-1-1-1-x-x1-0-1---|
"I swallowed my words to keep from lying..."


-------------------|
-------------------|
-2222222222222222--|
-2222222222222222--|
-0000000000000000--|

chorus
-0-0-0-0-0-0-0-0-3-3-3-3-2-2-2-2-|
-2-2-2-2-2-2-3-3-3-3-3-3-3-3-3-3-|
-2-2-2-2-2-2-2-2-2-2-2-2-2-2-2-2-|
-2-2-2-2-2-2-2-2-0-0-0-0-0-0-0-0-|
-0-0-0-0-0-0-0-0-----------------|
---------------------------------|
"   I'm   in     hiding..."

solo
---------------------------------------------------------------------------|
-/10--10-8-7-8--7h8-8/10--10-8-7-8-\3--/10--10-8-7-8--7-8-/10-8-----7--8-7-|
-----------------------------------------------------------------7h9-------|
---------------------------------------------------------------------------|
---------------------------------------------------------------------------|
---------------------------------------------------------------------------|

outro
-2-2-2-2-2-3-3-2/8-8-8-8-7-7-7-7~-7-7-7-7-5-5-5-5----------------/3-2-0---0-2----|
-3-3-3-3-3-3-3-3/8-8-8-8-8-8-8-8~-8-8-8-8-8-8-8-8--7-8-/10-3---3--------3------3-|
-2-2-2-2-2-2-2-2/7-7-7-7-7-7-7-7~-7-7-7-7-7-7-7-7--------------2---------------2-|
-0-0-0-0-0-0-0-0-0-0-0-0-0-0-0-0--0-0-0-0-0-0-0-0--------------0---------------0-|
---------------------------------------------------------------------------------|
---------------------------------------------------------------------------------|
									


911Tabs.com - tabs search engine
More "In Hiding" tabs @ 911Tabs

A Guide to Tab NotationGuitar TabsGuitar ResourcesGuitar TabsPrivacy PolicyGuitar TabsContact

Online Guitar Lessons

Pearl Jam Guitar Tabs - Over 200,000 chords, guitar and bass tabs with video. Find tabs, video guitar lessons and more.