Music Guitar Tab, Tabs with MP3, ringtones, ringtone, concert tickets, guitar lessons, guitar tabs easy, guitar hero

Guitar Tabs Guitar Chords Bass Tabs
 Web Guitar Tabs
Guitar Lessons
 
Lyrics abcdefghijklmnopqrstuvwxyz # Top 100 Lyrics

Guitar Tabs
Guitar Tab






click on, click off


Tab for "I Got You" - Pearl Jam Rating 4Print Guitar Tabs
select alternative YouTube videos below...
Tweak the search term to refine the YouTube video results:         
Share on Facebook

Learn to play this song and others via online guitar lessons @ JamPlay.com!

---------------------------------------------------------------------------
	       	        Pearl Jam - I got you (live)
---------------------------------------------------------------------------
Tabbed by: @$H
Email: billiejoefanclub@hotmail.com
Pearl Jam covering Split Enz live at Verona - I got you
This is very similar to Split Enz's version except Eddie seems to mix up 
some lyrics (seems to make some up) and the bridge is played on 2 guitars.
The main chords used in the intro and verses are D and Bb but are not the
whole chord. 

| /  slide up
| \  slide down
| h  hammer-on
| p  pull-off
| ~  vibrato
| +  harmonic
| x  Mute note

Tuning: Standard

Intro
  D                D    Bb   D    Bb   D    Bb   D    Bb
e|----------------|---------|---------|---------|--------------------------|
B|3333333333333333|3333-3333|3333-3333|3333-3333|3333-3333-----------------|
G|2222222222222222|2222-3333|2222-3333|2222-3333|2222-3333-----------------|
D|----------------|---------|---------|---------|--------------------------|
A|----------------|---------|---------|---------|--------------------------|
E|----------------|---------|---------|---------|--------------------------|
  PM------------------------------------------------------|
Verse 1
  D    Bb   A              G
e|---------|---------------3333~-------------------------------------------|
B|3333-3333|2-2-2-2-2-2-2--3333~-------------------------------------------|
G|2222-3333|2-2-2-2-2-2-2--000---------------------------------------------|
D|---------|2-2-2-2-2-2-2--000---------------------------------------------|
A|---------|0-0-0-0-0-0-0--222---------------------------------------------|
E|---------|---------------333---------------------------------------------|
  PM--------------------------|

D     Bb   A              G
I got you, and that's all I want
D       Bb      A            G          
I won't forget, but that's a whole lot
D             Bb  A            G
Where do they go, but that not easy
D              Bb  A                  G
Won't you show me, tell me you're not teasing


Chorus
  G    A    G    A    D
e|3-33------3-33------2-222-3333-2-0----------------------------------------|
B|3-33-2-22-3-33-2-22-3-333-3333-3-3----------------------------------------|
G|0-00-2-22-0-00-2-22-2-222-2222-2-2----------------------------------------|
D|0-00-2-22-0-00-2-22-------------------------------------------------------|
A|2-22-0-00-2-22-0-00-------------------------------------------------------|
E|3-33------3-33------------------------------------------------------------|

  G    A    G    D    A
e|3-33------3-33-2-22-------------------------------------------------------|
B|3-33-2-22-3-33-3-33-2-222-2222-222----------------------------------------|
G|0-00-2-22-0-00-2-22-2-222-2222-222----------------------------------------|
D|0-00-2-22-0-00------2-222-2222-222----------------------------------------|
A|2-22-0-00-2-22------0-000-0000-000----------------------------------------|
E|3-33------3-33------------------------------------------------------------|

G       A        G         A     D
I don't know why sometimes I get frightened
G              A        G    D       A
You can see my eyes and tell I'm not lyin'


Verse 2
  D    Bb   A              G
e|---------|---------------3333~-------------------------------------------|
B|3333-3333|2-2-2-2-2-2-2--3333~-------------------------------------------|
G|2222-3333|2-2-2-2-2-2-2--000---------------------------------------------|
D|---------|2-2-2-2-2-2-2--000---------------------------------------------|
A|---------|0-0-0-0-0-0-0--222---------------------------------------------|
E|---------|---------------333---------------------------------------------|
  PM--------------------------|

D        Bb    A            G
Where do thou, but when I'm with you
D        Bb       A         G
When I'm without, I stay in my room
D            Bb  A        G
Where do you go, I get no answer
D           Bb  A        G
Your owe me, you're a pagaent


Chorus
  G    A    G    A    D
e|3-33------3-33------2-222-3333-2-0----------------------------------------|
B|3-33-2-22-3-33-2-22-3-333-3333-3-3----------------------------------------|
G|0-00-2-22-0-00-2-22-2-222-2222-2-2----------------------------------------|
D|0-00-2-22-0-00-2-22-------------------------------------------------------|
A|2-22-0-00-2-22-0-00-------------------------------------------------------|
E|3-33------3-33------------------------------------------------------------|

  G    A    G    D    A
e|3-33------3-33-2-22-------------------------------------------------------|
B|3-33-2-22-3-33-3-33-2-222-2222-222----------------------------------------|
G|0-00-2-22-0-00-2-22-2-222-2222-222----------------------------------------|
D|0-00-2-22-0-00------2-222-2222-222----------------------------------------|
A|2-22-0-00-2-22------0-000-0000-000----------------------------------------|
E|3-33------3-33------------------------------------------------------------|

G       A        G         A     D
I don't know why sometimes I get frightened
G              A        G    D       A
You can see my eyes and tell I'm not lyin'

Again

G       A        G         A     D
I don't know why sometimes I get frightened
G              A        G    D       A
You can see my eyes and tell I'm not lyin'



Bridge Solo (improvised on 1 guitar)
                 x4
e|-----------------|1111-3333----------------------------------------------|
B|--8-75-----------|1111-3333----------------------------------------------|
G|7-----7-6767-9-76|2222-4444----------------------------------------------|
D|-----------------|3333-5555----------------------------------------------|
A|-----------------|3333-5555----------------------------------------------|
E|-----------------|1111-3333----------------------------------------------|



Verse 3
  D    Bb   A              G
e|---------|---------------3333~-------------------------------------------|
B|3333-3333|2-2-2-2-2-2-2--3333~-------------------------------------------|
G|2222-3333|2-2-2-2-2-2-2--000---------------------------------------------|
D|---------|2-2-2-2-2-2-2--000---------------------------------------------|
A|---------|0-0-0-0-0-0-0--222---------------------------------------------|
E|---------|---------------333---------------------------------------------|
  PM--------------------------|

D         Bb    A            G
Where are thou, and they get outta
D              Bb  A                  G
Won't she show me, tell me you're not teasin'
D            Bb  A        G
Where do you go, I get no answer
D             Bb                 A          G
You're always out... out... out, it gets on my nerves



Chorus
  G    A    G    A    D
e|3-33------3-33------2-222-3333-2-0----------------------------------------|
B|3-33-2-22-3-33-2-22-3-333-3333-3-3----------------------------------------|
G|0-00-2-22-0-00-2-22-2-222-2222-2-2----------------------------------------|
D|0-00-2-22-0-00-2-22-------------------------------------------------------|
A|2-22-0-00-2-22-0-00-------------------------------------------------------|
E|3-33------3-33------------------------------------------------------------|
  G    A    G    D    A
e|3-33------3-33-2-22-------------------------------------------------------|
B|3-33-2-22-3-33-3-33-2-222-2222-222----------------------------------------|
G|0-00-2-22-0-00-2-22-2-222-2222-222----------------------------------------|
D|0-00-2-22-0-00------2-222-2222-222----------------------------------------|
A|2-22-0-00-2-22------0-000-0000-000----------------------------------------|
E|3-33------3-33------------------------------------------------------------|

G       A        G         A     D
I don't know why sometimes I get frightened
G              A        G    D       A
You can see my eyes and tell I'm not lyin'
G       A        G         A     D
I don't know why sometimes I get frightened
G              A        G    D       A
You can see my eyes and tell I'm not lyin'

Outro (improvised on 1 guitar)
                 x4
e|-----------------|1111-3333|2~~~~0h2-0h2|2-------------------------------|
B|--8-75-----------|1111-3333|3~~~~3---3--|3-------------------------------|
G|7-----7-6767-9-76|2222-4444|2~~~~2---2--|2-------------------------------|
D|-----------------|3333-5555|------------|--------------------------------|
A|-----------------|3333-5555|------------|--------------------------------|
E|-----------------|1111-3333|------------|--------------------------------|
									


911Tabs.com - tabs search engine
More "I Got You" tabs @ 911Tabs

A Guide to Tab NotationGuitar TabsGuitar ResourcesGuitar TabsPrivacy PolicyGuitar TabsContact

Online Guitar Lessons

Pearl Jam Guitar Tabs - Over 200,000 chords, guitar and bass tabs with video. Find tabs, video guitar lessons and more.