Music Guitar Tab, Tabs with MP3, ringtones, ringtone, concert tickets, guitar lessons, guitar tabs easy, guitar hero

Guitar Tabs Guitar Chords Bass Tabs
 Web Guitar Tabs
Guitar Lessons
 
Lyrics abcdefghijklmnopqrstuvwxyz # Top 100 Lyrics

Guitar Tabs
Guitar Tab






click on, click off


Tab for "I Got Id" - Pearl Jam Rating 4Print Guitar Tabs
select alternative YouTube videos below...
Tweak the search term to refine the YouTube video results:         
Share on Facebook

Learn to play this song and others via online guitar lessons @ JamPlay.com!

"I Got Id" by Pearl Jam
Tabbed by: Jimbopo
E-mail: unsupersmith@gmail.com

It's actually called "I Got Shit" but that tab is already taken...
It's from Merkin Ball but the real work was done by Neil Young and
Brendan O'Brien and was seperated from the Mirror Ball album. The frame
work for the song is already out there on another tab. The lyrics might
seem wrong to some as there are many interpretations out there. I did
this one completely by ear even though I had resources available.
Please rate.

Guitar1: Standard- eBGDAE distortion
Guitar2: Standard- eBGDAE distortion (loud)

  Intro(0:00) *Strum very lightly
 G1 (the following four measures were split in half to save space)
e|-----10----(10)-----(10)---------------(10)----|----------------------|
B|-----10----(10)---11(11)-10----------10(10)----|----------------------|
G|-11------11---(10)10--------11--(11)-11----(10)|----------------------|
D|--0-------0-----0--0---------0--------0------0-|----------------------|
A|-----------------------------------------------|----------------------|
E|-----------------------------------------------|----------------------|

 G1								end 1st
e|---(10)-----------(10)--------8-----8-------------|-------------------|
B|-11(11)---------10(10)-10\8-8-----8-----8-(8)8/10-|-------------------|
G|-10----(10)-11--11-----11\9-9---9-9---9-9-(9)9/11-|-------------------|
D|---------0---0----------0---0---0-----0----0------|-------------------|
A|--------------------------------------------------|-------------------|
E|--------------------------------------------------|-------------------|


  (0:11) *Strum slightly harder, letting bottom strings ring
 G1
e|-----10----(10)-----(10)---------------(10)------(10)|----------------|
B|-----10----(10)---11(11)-10----------10(10)----11(11)|----------------|
G|-11------11---(10)10--------11--(11)-11----(10)10----|----------------|
D|--0-------0-----0--0---------0--------0------0-------|----------------|
A|-----------------------------------------------------|----------------|
E|-----------------------------------------------------|----------------|

 G1								end 2nd
e|-----------(10)--------8-----8-------------|--------------------------|
B|---------10(10)-10\8-8-----8-----8-(8)8/10-|--------------------------|
G|(10)-11--11-----11\9-9---9-9---9-9-(9)9/11-|--------------------------|
D|--0---0----------0---0---0-----0----0------|--------------------------|
A|-------------------------------------------|--------------------------|
E|-------------------------------------------|--------------------------|


 *Natural Harmonic halfway between electric coil pickups
G2
e|---------------------------------------------------------------------|
B|---------------------------------------------------------------------|
G|---------------------------------------------------------------------|
D|-29^*-----\0---------------------------------------------------------|
A|---------------------------------------------------------------------|
E|---------------------------------------------------------------------|


  (0:22) *Strum normally
 G1
e|---------10------------10----------10--------|------------------------|
B|-10--10-----10-----11--11-(11)-10-----10-----|------------------------|
G|-11--11-------(10)-10------10--11-------(10)-|------------------------|
D|--0-------------0---------------0------------|------------------------|
A|---------------------------------------------|------------------------|
E|---------------------------------------------|------------------------|
 My lips are shakin', my nails are bit off...


 G1								end 3rd
e|--------------10---------------------8-8/10-|-------------------------|
B|-11(11)----10----10-10\8-8-8-8-8-8-8-8-8/10-|-------------------------|
G|-10(10)-10-11-------11\9-9-9-9-9-9-9-9-9----|-------------------------|
D|---------0---------------0-0-0-0-0-0--------|-------------------------|
A|--------------------------------------------|-------------------------|
E|--------------------------------------------|-------------------------|
 It's been a month since I heard myself talk.

 *slide six fretts
G2
e|---------------------------------------------------------------------|
B|---------------------------------------------------------------------|
G|----------------------5^\--------------------------------------------|
D|-29^-------\0-------------------------------*/-----------------------|
A|---------------------------------------------/-----------------------|
E|---------------------------------------------/-----------------------|


  (0:34)
 G1
e|---------10--------------------10--------------|----------------------|
B|-10--10-----10-----11-(11)-10-----10----11(11)-|----------------------|
G|-11--11-------(10)-10--10--11-------(10)10(10)-|----------------------|
D|--0-------------0-----------0------------------|----------------------|
A|-----------------------------------------------|----------------------|
E|-----------------------------------------------|----------------------|
 Only advantage this life's got on me...


 G1								end 4th
e|----10----------------------------------8-|---------------------------|
B|-10----10-10\8-8--8-8-8-8-8-8-8-8-8-8-8-8-|---------------------------|
G|-11-------11\9-9--9-9-9-9-9-9-9-9-9-9-9-9-|---------------------------|
D|---------------0--0-0-0-0-0-0-0-0-0-0-0-0-|---------------------------|
A|------------------------------0-0-0-0-0-0-|---------------------------|
E|------------------------------------------|---------------------------|
 Picture a cup in the middle of the sea...

 *slide two fretts
G2
e|---------------------------------------------------------------------|
B|---------------------------------------------------------------------|
G|---------------------------------------------------------------------|
D|--------------------------------------------------------7-7-7-7-7-7--|
A|--------------------------------------------------------7-7-7-7-7-7--|
E|--*\----------------------------------------------------5-5-5-5-5-5--|


 Verse(0:46)*Palm mute entire measure---------------------------------|
 G1
e|----------------------------------|-----------------------------------|
B|----------------------------------|-----------------------------------|
G|-7--7-7-7-7-7-7-7-----------------|-----------------------------------|
D|-9--9-9-9-9-9-9-9-4-4-4-5-5-5-5-5-|-9--9-9-9-9-9-9-9-4-4-4-5-5-5-5-5--|
A|-9--9-9-9-9-9-9-9-4-4-4-5-5-5-5-5-|-9--9-9-9-9-9-9-9-4-4-4-5-5-5-5-5--|
E|-7--7-7-7-7-7-7-7-2-2-2-3-3-3-3-3-|-7--7-7-7-7-7-7-7-2-2-2-3-3-3-3-3--|
 And I fought back in my mind...     It let's me know...


G2
e|-2----------------2------3--------|-2----------------2------3---------|
B|-3----------------2------3--------|-3----------------2------3---------|
G|-4----------------3------4--------|-4----------------3------4---------|
D|-4----------------4------5--------|-4----------------4------5---------|
A|-2----------------4------5--------|-2----------------4------5---------|
E|-2----------------2------3--------|-2----------------2------3---------|


  *Palm mute entire measure-------------------------------------------|
 G1
e|----------------------------------|-----------------------------------|
B|----------------------------------|-----------------------------------|
G|-7--7-7-7-7-7-7-7-----------------|-----------------------------------|
D|-9--9-9-9-9-9-9-9-4-4-4-5-5-5-5-5-|-9--9-9-9-9-9-9-9-4-4-4-5-5-5-5-5--|
A|-9--9-9-9-9-9-9-9-4-4-4-5-5-5-5-5-|-9--9-9-9-9-9-9-9-4-4-4-5-5-5-5-5--|
E|-7--7-7-7-7-7-7-7-2-2-2-3-3-3-3-3-|-7--7-7-7-7-7-7-7-2-2-2-3-3-3-3-3--|
 I got memories, I got shit...	     So much it don't show...


G2
e|-2----------------2------3--------|-2----------------2------3---------|
B|-3----------------2------3--------|-3----------------2------3---------|
G|-4----------------3------4--------|-4----------------3------4---------|
D|-4----------------4------5--------|-4----------------4------5---------|
A|-2----------------4------5--------|-2----------------4------5---------|
E|-2----------------2------3--------|-2----------------2------3---------|


  Chorus(1:07)*Palm mute entire measure-------------------------------|
 G1
e|----------------------------------|-----------------------------------|
B|----------------------------------|-----------------------------------|
G|-7-7-7-7-7-7-7-7------------------|-5-5-5-5-5-5-5-5-------------------|
D|-7-7-7-7-7-7-7-7--7-7-7-7-7-7-7-7-|-5-5-5-5-5-5-5-5--5-5-5-5-5-5-5-5--|
A|-5-5-5-5-5-5-5-5--7-7-7-7-7-7-7-7-|-3-3-3-3-3-3-3-3--5-5-5-5-5-5-5-5--|
E|------------------5-5-5-5-5-5-5-5-|------------------3-3-3-3-3-3-3-3--|
 I walked the line...   When you held me... In the night...


G2
e|-------0-2-2------------3-0-------|---------0--------------3----------|
B|-----3-------3--------1-----1-----|-------3---1--------------3--------|
G|---2----------------2---------2---|-----0-------0--------0------------|
D|-0----------------2---------------|---2----------------0--------------|
A|----------------------------------|-3----------------2----------------|
E|----------------------------------|------------------3----------------|


  *Palm mute entire measure-------------------------------------------|
 G1
e|----------------------------------|-----------------------------------|
B|----------------------------------|-----------------------------------|
G|-7-7-7-7-7-7-7-7------------------|-5-5-5-5-5-5-5-5-------------------|
D|-7-7-7-7-7-7-7-7--7-7-7-7-7-7-7-7-|-5-5-5-5-5-5-5-5--5-5-5-5-5-5-5-5--|
A|-5-5-5-5-5-5-5-5--7-7-7-7-7-7-7-7-|-3-3-3-3-3-3-3-3--5-5-5-5-5-5-5-5--|
E|------------------5-5-5-5-5-5-5-5-|------------------3-3-3-3-3-3-3-3--|
 I walked the line...   When you held my hand that night...


G2
e|-2-----0--2--------------3--0-----|-------0--0-------------3----------|
B|-3--3-----3-----------1--1--------|----1--1--3-------------3----------|
G|-2--2-----2--------2--------------|----0----------------0-------------|
D|-------------------2--------------|-2-------------------0-------------|
A|-------------------0--------------|-3----------------2----------------|
E|----------------------------------|------------------3----------------|


  solo(1:27)
G1
e|-------------10-----------10-------------------10---------------------|
B|-10(10)10-10-10-(10)10-11-11(11)-10--10-(10)11-11-11\8-8-8-8-8-8-8-8--|
G|-11(11)11-11-11-(11)11-10---(10)-11--11-(11)10----10\9-9-9-9-9-9-9-9--|
D|--0-(0)-0--0--0--(0)-0--0----(0)--0---0--(0)-0-----0-0-0-0-0-0-0-0-0--|
A|----------------------------------------------------------------------|
E|----------------------------------------------------------------------|

G2
e|---------------------------------------------------------------------|
B|-----------------11----10~---11----10~===p(8)-8\5-5------------------|
G|----10br~~~~~~p7-----------------------------------------------------|
D|--------------------------------------------------2~~~---------------|
A|---------------------------------------------------------------------|
E|---------------------------------------------------------------------|

 G1
e|-------------10-----------10-------------------10---------------------|
B|-10(10)10-10-10-(10)10-11-11(11)-10--10-(10)11-11-11\8-8-8-8-8-8-8-8--|
G|-11(11)11-11-11-(11)11-10---(10)-11--11-(11)10----10\9-9-9-9-9-9-9-9--|
D|--0-(0)-0--0--0--(0)-0--0----(0)--0---0--(0)-0-----0-0-0-0-0-0-0-0-0--|
A|----------------------------------------------------------------------|
E|----------------------------------------------------------------------|

G2
e|----------------------------------------------------------------------|
B|----------------------------------------------------------------------|
G|----------------3~(3)-2~--2p0---3~-3-3-3-3-2~-------------------------|
D|-2-2-2\0~~--------------------3----------------3/5~-2/3~-3\2~~--/-\/--|
A|-------------2~~------------------------------------------------------|
E|----------------------------------------------------------------------|


  (1:48)
G1
e|----10-10--------------10--------------------------8--------|----------|
B|-10-10-10-10----11--10----10----11-10-(10)10\8---8---8-8/10-|----------|
G|-11----11-11(10)10--11------(10)10-11-(11)11\9-9-9---9-9/11-|----------|
D|-----------0------------------------0----------0------------|----------|
A|------------------------------------------------------------|----------|
E|------------------------------------------------------------|----------|
 On empty shells, seems so easy to crack.
 Got all the questions don't know who I could even ask...

G2
e|---------------------------------------------------------------------|
B|---------------------------------------------------------------------|
G|---------------------------------------------------------------------|
D|-\-------------------------------------------------------------------|
A|---------------------------------------------------------------------|
E|---------------------------------------------------------------------|

G1
e|---------10--------------10--------------10---------------------------|
B|-10-x-10----10----11--10----10----11--10----10-10\8--8-8-8-8-8-8-8-8--|
G|-11-x-11------(10)10--11------(10)10--11-------11\9--9-9-9-9-9-9-9-9--|
D|--0-x--0--------0--------------------------------------0-0-0-0-0-0-0--|
A|-------------------------------------------------------------0-0-0-0--|
E|----------------------------------------------------------------------|
 So I just lie alone and wait for the dream.
 Where I'm not ugly and you're lookin' at me...

G2
e|---------------------------------------------------------------------|
B|---------------------------------------------------------------------|
G|---------------------------------------------------------------------|
D|------------------------------------------------------------7-7-7-7--|
A|------------------------------------------------------------7-7-7-7--|
E|------------------------------------------------------------5-5-5-5--|


 Verse(2:12)*Palm mute entire measure---------------------------------|
 G1
e|----------------------------------|-----------------------------------|
B|----------------------------------|-----------------------------------|
G|-7--7-7-7-7-7-7-7-----------------|-----------------------------------|
D|-9--9-9-9-9-9-9-9-4-4-4-5-5-5-5-5-|-9--9-9-9-9-9-9-9-4-4-4-5-5-5-5-5--|
A|-9--9-9-9-9-9-9-9-4-4-4-5-5-5-5-5-|-9--9-9-9-9-9-9-9-4-4-4-5-5-5-5-5--|
E|-7--7-7-7-7-7-7-7-2-2-2-3-3-3-3-3-|-7--7-7-7-7-7-7-7-2-2-2-3-3-3-3-3--|
 And I stay in bed...		How could I not see it?


G2
e|-2----------------2------3--------|-2----------------2------3---------|
B|-3----------------2------3--------|-3----------------2------3---------|
G|-4----------------3------4--------|-4----------------3------4--10+10+-|
D|-4----------------4------5--------|-4----------------4------5---------|
A|-2----------------4------5--------|-2----------------4------5---------|
E|-2----------------2------3--------|-2----------------2------3---------|


  *Palm mute entire measure-------------------------------------------|
 G1
e|----------------------------------|-----------------------------------|
B|----------------------------------|-----------------------------------|
G|-7--7-7-7-7-7-7-7-----------------|-----------------------------------|
D|-9--9-9-9-9-9-9-9-4-4-4-5-5-5-5-5-|-9--9-9-9-9-9-9-9-4-4-4-5-5-5-5-5--|
A|-9--9-9-9-9-9-9-9-4-4-4-5-5-5-5-5-|-9--9-9-9-9-9-9-9-4-4-4-5-5-5-5-5--|
E|-7--7-7-7-7-7-7-7-2-2-2-3-3-3-3-3-|-7--7-7-7-7-7-7-7-2-2-2-3-3-3-3-3--|
 If just once, I could feel loved... Oh, stare back at me... Lord...


G2
e|------------------2-----3---------|------------------2-----3----------|
B|-11br~~~~~~-------2-----3---------|-11br~~~~~~-------2-----3----------|
G|------------------3-----4---------|------------------3-----4----------|
D|------------------4-----5---------|------------------4-----5----------|
A|------------------4-----5---------|------------------4-----5----------|
E|------------------2-----3---------|------------------2-----3----------|


  Chorus(2:32)*Palm mute entire measure-------------------------------|
 G1
e|----------------------------------|-----------------------------------|
B|----------------------------------|-----------------------------------|
G|-7-7-7-7-7-7-7-7------------------|-5-5-5-5-5-5-5-5-------------------|
D|-7-7-7-7-7-7-7-7--7-7-7-7-7-7-7-7-|-5-5-5-5-5-5-5-5--5-5-5-5-5-5-5-5--|
A|-5-5-5-5-5-5-5-5--7-7-7-7-7-7-7-7-|-3-3-3-3-3-3-3-3--5-5-5-5-5-5-5-5--|
E|------------------5-5-5-5-5-5-5-5-|------------------3-3-3-3-3-3-3-3--|
 I walked the line...   When you held me...In the night.


G2
e|-----2--0----------------3--3-----|-----------0---------------3-------|
B|-----------3----------------------|--------3---------------------3----|
G|---------------------2------------|-----------------------------------|
D|---0--------------2---------------|-----2------------0-----0----------|
A|-0--------------------------------|--3------------------2-------------|
E|----------------------------------|-----------------------------------|


  *Palm mute entire measure-------------------------------------------|
 G1
e|----------------------------------|-----------------------------------|
B|----------------------------------|-----------------------------------|
G|-7-7-7-7-7-7-7-7------------------|-5-5-5-5-5-5-5-5-------------------|
D|-7-7-7-7-7-7-7-7--7-7-7-7-7-7-7-7-|-5-5-5-5-5-5-5-5--5-5-5-5-5-5-5-5--|
A|-5-5-5-5-5-5-5-5--7-7-7-7-7-7-7-7-|-3-3-3-3-3-3-3-3--5-5-5-5-5-5-5-5--|
E|------------------5-5-5-5-5-5-5-5-|------------------3-3-3-3-3-3-3-3--|
 I walked the line...   When you held my hand that night.


G2
e|-------2--0-------------3--0------|-----------0---------------3-------|
B|---------------------1--------1---|----1---3------------3--------3----|
G|-2--2-------------2---------------|----0-0------0-------0-------------|
D|-0----------------2---------------|-2----------------------0----------|
A|----------------------------------|-3----------------2-----2----------|
E|----------------------------------|------------------3----------------|


 *Palm mute entire measure--------------------------------------------|
G1
e|----------------------------------|-----------------------------------|
B|----------------------------------|-----------------------------------|
G|-7-7-7-7-7-7-7-7------------------|-5-5-5-5-5-5-5-5-------------------|
D|-7-7-7-7-7-7-7-7--7-7-7-7-7-7-7-7-|-5-5-5-5-5-5-5-5--5-5-5-5-5-5-5-5--|
A|-5-5-5-5-5-5-5-5--7-7-7-7-7-7-7-7-|-3-3-3-3-3-3-3-3--5-5-5-5-5-5-5-5--|
E|------------------5-5-5-5-5-5-5-5-|------------------3-3-3-3-3-3-3-3--|
 I walked the line...   When you held me close at night.


G2
e|-2--2--0------------------3-------|------------0----------------0-----|
B|-3--------3------------1----------|-1-------3-----------3----3-----3--|
G|-2------------------2-----------2-|---------------------0(0)-0--------|
D|-----------------2-----------2----|------2-----------0---(0)----------|
A|----------------------------------|---3--------------2----------------|
E|----------------------------------|-----------------------------------|


  *Palm mute entire measure-------------------------------------------|
 G1
e|----------------------------------|-----------------------------------|
B|----------------------------------|-----------------------------------|
G|-7-7-7-7-7-7-7-7------------------|-5-5-5-5-5-5-5-5-------------------|
D|-7-7-7-7-7-7-7-7--7-7-7-7-7-7-7-7-|-5-5-5-5-5-5-5-5--5-5-5-5-5-5-5-5--|
A|-5-5-5-5-5-5-5-5--7-7-7-7-7-7-7-7-|-3-3-3-3-3-3-3-3--5-5-5-5-5-5-5-5--|
E|------------------5-5-5-5-5-5-5-5-|------------------3-3-3-3-3-3-3-3--|
 I paid the price...   Never held you in the right...


G2
e|-----2--0------------------3------|-------0-------------------0-------|
B|-----------3---------1--1---------|----------1----------3--0-----3----|
G|--------------2-------------------|-----------------------------------|
D|-0-0--------------2---------------|---2-------------------------------|
A|-0-0------------------------------|-3----------------2----------------|
E|----------------------------------|-----------------------------------|


 Solo(3:13)
 G1
e|-------------10-----------10-------------------10---------------------|
B|-10(10)10-10-10-(10)10-11-11(11)-10--10-(10)11-11-11\8-8-8-8-8-8-8-8--|
G|-11(11)11-11-11-(11)11-10---(10)-11--11-(11)10----10\9-9-9-9-9-9-9-9--|
D|--0-(0)-0--0--0--(0)-0--0----(0)--0---0--(0)-0-----0-0-0-0-0-0-0-0-0--|
A|----------------------------------------------------------------------|
E|----------------------------------------------------------------------|

G2
e|---------------------------------------------------------------------|
B|-6~-6~(6)6~-11~-11~-11p10-11p10--------11(11)11(11)(10)(8)(6)6\5~~~--|
G|-7~-7~(7)7~---------------------10p7---------------------------------|
D|-------------------------------------7-------------------------------|
A|---------------------------------------------------------------------|
E|---------------------------------------------------------------------|

 G1
e|-------------10-----------10-------------------10---------------------|
B|-10(10)10-10-10-(10)10-11-11(11)-10--10-(10)11-11-11\8-8-8-8-8-8-8-8--|
G|-11(11)11-11-11-(11)11-10---(10)-11--11-(11)10----10\9-9-9-9-9-9-9-9--|
D|--0-(0)-0--0--0--(0)-0--0----(0)--0---0--(0)-0-----0-0-0-0-0-0-0-0-0--|
A|----------------------------------------------------------------------|
E|----------------------------------------------------------------------|

G2
e|---------------------------------------------------------------------|
B|-8fbr8----8fb-10(10)10-11(11)11-10-8fb-11(11)11-10-8fb~--------------|
G|-------10-----------------------------------------------0--2---------|
D|--------------------------------------------------------------5~~\3--|
A|---------------------------------------------------------------------|
E|---------------------------------------------------------------------|

 G1
e|-------------10-----------10-------------------10---------------------|
B|-10(10)10-10-10-(10)10-11-11(11)-10--10-(10)11-11-11\8-8-8-8-8-8-8-8--|
G|-11(11)11-11-11-(11)11-10---(10)-11--11-(11)10----10\9-9-9-9-9-9-9-9--|
D|--0-(0)-0--0--0--(0)-0--0----(0)--0---0--(0)-0-----0-0-0-0-0-0-0-0-0--|
A|----------------------------------------------------------------------|
E|----------------------------------------------------------------------|


G2
e|---------------------------------------------------------------------|
B|---------------------------------------------------------------------|
G|-------10-10(10)10(10)-11~~~~-10-10(10)10-11~~~~-(11)\5~~~-----------|
D|-3--0----------------------------------------------------------------|
A|---------------------------------------------------------------------|
E|---------------------------------------------------------------------|
							Yeah...


 G1
e|-------------10-----------10-------------------10---------------------|
B|-10(10)10-10-10-(10)10-11-11(11)-10--10-(10)11-11-11\8-8-8-8-8-8-8-8--|
G|-11(11)11-11-11-(11)11-10---(10)-11--11-(11)10----10\9-9-9-9-9-9-9-9--|
D|--0-(0)-0--0--0--(0)-0--0----(0)--0---0--(0)-0-----0-0-0-0-0-0-0-0-0--|
A|----------------------------------------------------------------------|
E|----------------------------------------------------------------------|

G2
e|-10-----10-----------------------------------------------------------|
B|----10---------------------------------------------------------------|
G|-----------12-10----10----15~~14~~12------15~~15~15~14~12~-----------|
D|-----------------12----12-----------15p12----------------(15)17~~~~--|
A|---------------------------------------------------------------------|
E|---------------------------------------------------------------------|

 G1
e|-------------10-----------10-------------------10---------------------|
B|-10(10)10-10-10-(10)10-11-11(11)-10--10-(10)11-11-11\8-8-8-8-8-8-8-8--|
G|-11(11)11-11-11-(11)11-10---(10)-11--11-(11)10----10\9-9-9-9-9-9-9-9--|
D|--0-(0)-0--0--0--(0)-0--0----(0)--0---0--(0)-0-----0-0-0-0-0-0-0-0-0--|
A|----------------------------------------------------------------------|
E|----------------------------------------------------------------------|

G2
e|-10-------10----------12b13-13----12b13r12b13r12b13r12-------t10-----|
B|----13b15----13-15-11~---------11----------------------13b15=r=13----|
G|---------------------------------------------------------------------|
D|---------------------------------------------------------------------|
A|---------------------------------------------------------------------|
E|---------------------------------------------------------------------|

 G1
e|-------------10-----------10-------------------10---------------------|
B|-10(10)10-10-10-(10)10-11-11(11)-10--10-(10)11-11-11\8-8-8-8-8-8-8-8--|
G|-11(11)11-11-11-(11)11-10---(10)-11--11-(11)10----10\9-9-9-9-9-9-9-9--|
D|--0-(0)-0--0--0--(0)-0--0----(0)--0---0--(0)-0-----0-0-0-0-0-0-0-0-0--|
A|----------------------------------------------------------------------|
E|----------------------------------------------------------------------|

G2
e|----------12b13-------------12---12fbr-10-----10-----12-----12-------|
B|-10h13p10------11---11~-10~---10---------13b15--15b17--15b17---17fb--|
G|-----------------10--------------------------------------------------|
D|---------------------------------------------------------------------|
A|---------------------------------------------------------------------|
E|---------------------------------------------------------------------|


 Outro(4:14)
G1
e|----------------10--------------10-------------8----------|-----------|
B|-10--10--11--10-10-10-10-11--10-10-10-10\8-8-8-8-8---8/10-|-----------|
G|-11--11--10--11-------11-10--11----11-11\9-9-9---9-9-9/11-|-----------|
D|----------------------------------------------------------|-----------|
A|----------------------------------------------------------|-----------|
E|----------------------------------------------------------|-----------|

G1
e|-10------10----10-------------------------------8-----------10---10--|
B|-10--10--10-10-10----11--10--11-----10-10\8-8-8-8-8---8/10--11---10--|
G|-11--11--11-11---(10)10--11--10(10)-11-11\9-9-9---9-9-9/11--10-x-11--|
D|------0------0-----------------------------------------------0-x-----|
A|---------------------------------------------------------------------|
E|---------------------------------------------------------------------|
 My lips are shakin'...
							Song Ends(4:51)

Did it all in one night.. phew! My head's a spinnin'.

*I made some corrections/clarifying on this tab after submission.

Tab Notations:

 - = string
 # = frett
 ~ = vibrato
 / = slide up
 \ = slide down
 h = hammer-on
 p = pull-off
 b = bend (to indicated frett or 1/4 step if not specified)
fb = full bend (1 step)
 = = hold bend (except for in this notation guide!)
pb = pre-bend (bend before striking
 r = release bend
 x = string noise (tap)
(#)= mute string (after striking)
 ^ = natrual harmonic
 + = artificial harmonic
 t = trill/tremelo (as noted)
 * = as noted
Comments?
									


911Tabs.com - tabs search engine
More "I Got Id" tabs @ 911Tabs

A Guide to Tab NotationGuitar TabsGuitar ResourcesGuitar TabsPrivacy PolicyGuitar TabsContact

Online Guitar Lessons

Pearl Jam Guitar Tabs - Over 200,000 chords, guitar and bass tabs with video. Find tabs, video guitar lessons and more.