Music Guitar Tab, Tabs with MP3, ringtones, ringtone, concert tickets, guitar lessons, guitar tabs easy, guitar hero

Guitar Tabs Guitar Chords Bass Tabs
 Web Guitar Tabs
Guitar Lessons
 
Lyrics abcdefghijklmnopqrstuvwxyz # Top 100 Lyrics

Guitar Tabs
Guitar Tab






click on, click off


Tab for "Help Help" - Pearl Jam Rating 4Print Guitar Tabs
select alternative YouTube videos below...
Tweak the search term to refine the YouTube video results:         
Share on Facebook

Learn to play this song and others via online guitar lessons @ JamPlay.com!

Author/Artist: Pearl Jam
Title: Help Help
Album: Riot Act
Transcribed by: Saverain
Email: saverain@yahoo.com
v strum down
^ strum up
m mute
For the tab contest

-----|-------|----------------------------------------------------------------
-----|-------|----------------------------------------------------------------
-----|-------|--------5----5--4-4--4-4---3---3--2---4--4-4--------5--5-5---4--
-----|-------|--------5----5--5-5--5-5---3----------5--5-5--------5--5-5---5--
-----|-------|----------------------------------------------------------------
-----|-------|----------------------------------------------------------------
       drums          v    ^ m^ v  v ^   v   v  ^   ^  v ^        v  v ^   v  

------------------------------------------------------------------------------
------------------------------------------------------------------------------
--4-4---3----3--3-3------5----5--5-5--4--4-4--3----3--3-3--4--4-4------5--5-5-
--5-5---3----3--3-3------5----5--5-5--5--5-5--3----3--3-3--5--5-5------5--5-5-
-------------------------3----------------------------------------------------
------------------------------------------------------------------------------
  v ^   v    v  v ^      v    v  v ^  v  v ^  v    v  v ^  v  v ^      v  v ^ 

---------------------|--------------------------------------------------------
---------------------|--------------------------------------------------------
---4--4-4--3----3----|--------------------------------------------------------
---5--5-5--3----3----|--------------------------------------------------------
---------------------|--------------------------------------------------------
---------------------|--------------------------------------------------------
   v  v ^  v    v                                                             

-------|----------------------------|-----------------------------------------
-------|---------------------7------|-----------------------------------------
-------|-----0-----0----------------|-----------------------------------------
-------|---5-----5-----5---4-----4-\|-----------------------------------------
-------|-6-----6-----6---5-----5-5-\|-----------------------------------------
-------|----------------------------|-----------------------------------------
         v ^ v ^ v ^ v ^ v ^ v ^ v                                            

-------|----------------------------------------------------|--|--------------
-------|----------------------------------------------------|--|--------------
-------|-5-5-5-5-5--x-6-6--7-7-7-8-8-8-8-8--x-8-8--10-10-10-|--|--------------
-------|-5-5-5-5-5--x-6-6--7-7-7-8-8-8-8-8--x-8-8--10-10-10-|--|--------------
-------|-3-3-3-3-3--x-4-4--5-5-5-6-6-6-6-6--x-6-6--8--8--8--|--|--------------
-------|----------------------------------------------------|--|--------------
 chorus> v ^ v ^ vm v ^ vm v ^ v v ^ v ^ vm v ^ vm v  ^  v  <                 

-------|-------------------------------|--|----------------------------|------
-------|--------------------7-----7----|--|----------------------------|------
-------|-----0-----0-------------------|--|-----0-----0----------------|------
-------|---5-----5--------4-----4------|2x|---5-----5-----5---4-4---4-\|------
-------|-6-----6-----6--5-----5-----5--|--|-6-----6-----6---5-----5-5-\|------
-------|-------------------------------|--|----------------------------|------
         v ^ v ^ v ^ v  continue rythm      v ^ con.rythm                     

----|------------------------------------|----------------------------------|-
----|------------------------------------|----------1-----------------------|-
----|-------0--5----------0--------0-----|-------0------------0--------0----|-
----|----5-------------------------------|----5-----------------------------|-
----|-3----------------5--------5--------|-3---------------5--------5-------|-
----|----------------6-------7---------7-|---------------6-------7--------7-|-
  interlude
									


911Tabs.com - tabs search engine
More "Help Help" tabs @ 911Tabs

A Guide to Tab NotationGuitar TabsGuitar ResourcesGuitar TabsPrivacy PolicyGuitar TabsContact

Online Guitar Lessons

Pearl Jam Guitar Tabs - Over 200,000 chords, guitar and bass tabs with video. Find tabs, video guitar lessons and more.