Music Guitar Tab, Tabs with MP3, ringtones, ringtone, concert tickets, guitar lessons, guitar tabs easy, guitar hero

Guitar Tabs Guitar Chords Bass Tabs
 Web Guitar Tabs
Guitar Lessons
 
Lyrics abcdefghijklmnopqrstuvwxyz # Top 100 Lyrics

Guitar Tabs
Guitar Tab






click on, click off


Tab for "Gone" - Pearl Jam Rating 4Print Guitar Tabs
select alternative YouTube videos below...
Tweak the search term to refine the YouTube video results:         
Share on Facebook

Learn to play this song and others via online guitar lessons @ JamPlay.com!

-------------------------------------------------------------------
			     	 "Gone" 
			    acoustic version

				Pearl Jam
-------------------------------------------------------------------
Tabbed by: simmers33
Email: simmers33@netscape.net

Tuning: Standard
'/' above bars indicates attempt at displaying 4/4 timing
-------------------------------
Intro 
(mostly strumming, no rests, listen to the song to get the pattern)

    C/B    /    /    /	    E    /    /    / 	  	
e||----------------------|--x-----x----x-x-x----||
B||---------0------------|--x-----x----x-x-x----||
G||.--------4------------|--x-----x----x-x-x---.||
D||.-2------2----------0-|--2-----4----2-2-2-0-.||
A||--3------3----------0-|--2-----2----2-2-2----||
E||----------------------|--0-----0----0-0-0----||
					    3X
	

     G    /    /    /      Asus  /    /    /	  /  /  /  /
e||--x-------------------|--0-------0}----------|(0)--------||
B||--0-------------------|--0-------0}----------|(0)--------||
G||--4-------------------|--4-------4}----------|(4)--------||
D||--0-------------------|--2-------2}----------|(2)--------||
A||--x-------------------|--0-------0}----------|(0)--------||
E||--3-------------------|----------------------|-----------||
				    {let ring_______________}
------------------------------

Verses 1 and 2  (fig. 1)

    C/B    /    /    /	    E    /    /    / 	  	
e||----------------------|--x-----x----x-x-x----||
B||---------0------------|--x-----x----x-x-x----||
G||.--------4------------|--x-----x----x-x-x---.||
D||.-2------2----------0-|--x-----4----2-2-2-0-.||
A||--3------3----------0-|--2-----2----2-2-2----||
E||----------------------|--0-----0----0-0-0----||
					    3X
              1.No more     up  set   mornings	
		no more      trying   evenings
		this   a -  merican dream  I


     G    /    /    /      Asus  /    /    /	
e||--x-------------------|--0-------------------||
B||--0-------------------|--0-------------------||
G||--4-------------------|--4-------------------||
D||--0-------------------|--2-------------------||
A||--x-------------------|--0-------------------||
E||--3-------------------|----------------------||

              am   	    dis- be- liev-ing		


    C/B    /    /    /	    E    /    /    / 	  	
e||----------------------|--x-----x----x-x-x----||
B||---------0------------|--x-----x----x-x-x----||
G||.--------4------------|--x-----x----x-x-x---.||
D||.-2------2----------0-|--x-----4----2-2-2-0-.||
A||--3------3----------0-|--2-----2----2-2-2----||
E||----------------------|--0-----0----0-0-0----||
					    3X
            	When  the  gas in my  tank
		feels like money in the bank
		gon-na     blow it all this time



     G    /    /    /      Asus  /    /    /	  /  /  /  /
e||--x-------------------|--0-------0}----------|(0)--------||
B||--0-------------------|--0-------0}----------|(0)--------||
G||--4-------------------|--4-------4}----------|(4)--------||
D||--0-------------------|--2-------2}----------|(2)--------||
A||--x-------------------|--0-------0}----------|(0)--------||
E||--3-------------------|----------------------|-----------||
				    {let ring_______________}
         take  me           one last ride


--------------------------------
pre-chorus   

    /    /     /     /	    /    /    /    /	
e|--x--------------x--x--|--x------------x--x---||
B|--3--------------3--3--|--2------------2--2---||
G|--4--------------4--4--|--4------------4--4---||
D|--3--------------3--3--|--2------------2--2---||
A|--0--------------0--0--|--0------------0--0---||
E|-----------------------|----------------------||
					     3X
              1.  for the   lights of this city
          they only look    good when I'm speeding
          gonna leave em    all behind 'cause...
			

(strum chords throughout bars)				
    /    /     /     /	    /    /    /    /
e|--x-------x------------|--x------x------------|
B|--x-------x------------|--x------x------------|
G|--6-------7------------|--6------7------------|
D|--5-------5------------|--5------5------------|
A|--5-------5------------|--5------5------------|
E|-----------------------|----------------------|

    this    time......


    /    /     /     /	    /    /    /    /
e|--x-------x------------|--x------x------------||
B|--x-------x------------|--x------x------------||
G|--6-------7------------|--6------7------------||
D|--5-------5------------|--5------5------------||
A|--5-------5------------|--5------5------------||
E|-----------------------|----------------------||

			    I'm..........
		
---------------------------------

chorus (mostly 1/16th strumming, especially low A)

    /    /    /    /	    /    /    /    /			
e|--x------x-----xxxxxx--|--x------x-----xxxxxx--|
B|--5------5-----555555--|--5------5-----555555--|
G|--7------6-----767666--|--7------6-----767666--|
D|--7------7-----777777--|--7------7-----777777--|
A|--0------0-----000000--|--0------0-----000000--|
E|-----------------------|-----------------------|
   
    Go  -  ne		     long  gone


    /    /    /    /	    /    /    /    /			
e|--x------x-----xxxxxx--|-(0)-----0-------------|
B|--5------5-----555555--|--8------10------------|
G|--7------6-----767666--|--9------11------------|
D|--7------7-----777777--|--10-----12------------|
A|--0------0-----000000--|--0------0-------------|
E|-----------------------|-----------------------|

      this time   I'm	    letting go of it...


    /    /    /    /	    /    /    /    /			
e|--x------x-----xxxxxx--|--x------x-----xxxxxx--|
B|--5------5-----555555--|--5------5-----555555--|
G|--7------6-----767666--|--7------6-----767666--|
D|--7------7-----777777--|--7------7-----777777--|
A|--0------0-----000000--|--0------0-----000000--|
E|-----------------------|-----------------------|

    a  -   ll		     so    long


    /    /    /    /	    /    /    /    /			
e|--x------x-----xxxxxx--|-(0)-----0-------------||
B|--5------5-----555555--|--8------10------------||
G|--7------6-----767666--|--9------11------------||
D|--7------7-----777777--|--10-----12------------||
A|--0------0-----000000--|--0------0-------------||
E|-----------------------|-----------------------||

      cause this time I'm   gone

----------------------------- 2nd time go from here to ending        

1st time through play: 

    /    /    /    /	    /    /    /    /			
e|--x------x-----xxxxxx--|--x------x-----xxxxxx--|
B|--5------5-----555555--|--5------5-----555555--|
G|--7------6-----767666--|--7------6-----767666--|
D|--7------7-----777777--|--7------7-----777777--|
A|--0------0-----000000--|--0------0-----000000--|
E|-----------------------|-----------------------|
				         
    

    /    /    /    /	    /    /    /    /	  		
e|--x------x-----xxxxxx--|-(0)-------------------|
B|--5------5-----555555--|--8--------------------|
G|--7------6-----767666--|--9--------------------|
D|--7------7-----777777--|--10-------------------|
A|--0------0-----000000--|--0--------------------|
E|-----------------------|-----------------------|



   /    /    /    /	    /    /    /    /	    		
e|-(0)-0---0-}-----------|-(0)-------------------|
B|--8/-10--10}-----------|-(10)------------------|
G|--9/-11--11}-----------|-(11)------------------|
D|--10/12--12}-----------|-(12)------------------|
A|--0--0---0-}-----------|-(0)-------------------|
E|-----------------------|-----------------------|
	   {let ring_____________________________}

then go to 2nd verse, 2nd prechorus

2nd verse:

In the far off distance 
as my tail lights fade
no one thinks to witness
but they will some day

feel like a question is forming
and the answers far
I will be what I could be
once I get out of this town


2nd pre-chorus:

For the lights of this city
they have lost all feeling
gonna leave em all behind me cause
this time...  (go to chorus)

--------------------------------

Ending
 
(mostly 1/16th strumming, especially low A)

    /    /    /    /	    /    /    /    /			
e|--x------x-----xxxxxx--|--x------x-----xxxxxx--|
B|--5------5-----555555--|--5------5-----555555--|
G|--7------6-----767666--|--7------6-----767666--|
D|--7------7-----777777--|--7------7-----777777--|
A|--0------0-----000000--|--0------0-----000000--|
E|-----------------------|-----------------------|
    			

    /    /    /    /	    /    /    /    /			
e|--x------x-----xxxxxx--|-(0)-----0-------------|
B|--5------5-----555555--|--8------10------------|
G|--7------6-----767666--|--9------11------------|
D|--7------7-----777777--|--10-----12------------|
A|--0------0-----000000--|--0------0-------------|
E|-----------------------|-----------------------|

				       if nothing 


   /    /    /    /	    /    /    /    /			
e|--x------x-----xxxxxx--|--x------x-----xxxxxx--|
B|--5------5-----555555--|--5------5-----555555--|
G|--7------6-----767666--|--7------6-----767666--|
D|--7------7-----777777--|--7------7-----777777--|
A|--0------0-----000000--|--0------0-----000000--|
E|-----------------------|-----------------------|
    			
    is		           every - thing     if 
    

    /    /    /    /	    /    /    /    /			
e|--x------x-----xxxxxx--|-(0)-----0-------------|
B|--5------5-----555555--|--8------10------------|
G|--7------6-----767666--|--9------11------------|
D|--7------7-----777777--|--10-----12------------|
A|--0------0-----000000--|--0------0-------------|
E|-----------------------|-----------------------|

   nothing is     every  -thing i could have it  


    /    /    /    /	    /    /    /    /			
e|--x------x-----xxxxxx--|--x------x-----xxxxxx--|
B|--5------5-----555555--|--5------5-----555555--|
G|--7------6-----767666--|--7------6-----767666--|
D|--7------7-----777777--|--7------7-----777777--|
A|--0------0-----000000--|--0------0-----000000--|
E|-----------------------|-----------------------|
    			
    a   -  ll	     if    nothing is   
    

    /    /    /    /	    /    /    /    /			
e|--x------x-----xxxxxx--|-(0)-----0-------------|
B|--5------5-----555555--|--8------10------------|
G|--7------6-----767666--|--9------11------------|
D|--7------7-----777777--|--10-----12------------|
A|--0------0-----000000--|--0------0-------------|
E|-----------------------|-----------------------|  

   every - thing          I could have it all	


    /    /    /    /	    /    /    /    /			
e|--x------x-----xxxxxx--|--x------x-----xxxxxx--|
B|--5------5-----555555--|--5------5-----555555--|
G|--7------6-----767666--|--7------6-----767666--|
D|--7------7-----777777--|--7------7-----777777--|
A|--0------0-----000000--|--0------0-----000000--|
E|-----------------------|-----------------------|
    			
   


    /    /    /    /	    /    /    /    /			
e|--x------x-----xxxxxx--|-(0)-------------------|
B|--5------5-----555555--|--8--------------------|
G|--7------6-----767666--|--9--------------------|
D|--7------7-----777777--|--10-------------------|
A|--0------0-----000000--|--0--------------------|
E|-----------------------|-----------------------|

			    I - I    -   I


   /    /    /    /	    /    /    /    /	    		
e|-(0)-0---0-}-----------|-(0)-------------------|
B|--8/-10--10}-----------|--8--------------------|
G|--9/-11--11}-----------|--9--------------------|
D|--10/12--12}-----------|--10-------------------|
A|--0--0---0-}-----------|--0--------------------|
E|-----------------------|-----------------------|

    I  ....  		    Oh   oh   oh

   /    /    /    /	    /    /    /    /	    		
e|-(0)-0---0-}-----------|--5}-------------------|
B|--8/-10--10}-----------|--5}-------------------|
G|--9/-11--11}-----------|--6}-let ring----------|
D|--10/12--12}-----------|--7}-------------------|
A|--0--0---0-}-----------|--0}-------------------|
E|-----------------------|-----------------------|

		      I'm   Gone
-------------------------------------------------
-------------------------------------------------


I think that's it!  Fun song to play and sing along to.
This is mostly based on the demo version
I have of this song, just Eddie playing and singing.  
Thanks to the first post for the opening riff.
Any suggestions/corrections let me know.
words and music - Vedder.

| /  slide up
| \  slide down
| h  hammer-on
| p  pull-off
| ~  vibrato
| +  harmonic
| x  Mute note
=====================================================================
									


911Tabs.com - tabs search engine
More "Gone" tabs @ 911Tabs

A Guide to Tab NotationGuitar TabsGuitar ResourcesGuitar TabsPrivacy PolicyGuitar TabsContact

Online Guitar Lessons

Pearl Jam Guitar Tabs - Over 200,000 chords, guitar and bass tabs with video. Find tabs, video guitar lessons and more.