Music Guitar Tab, Tabs with MP3, ringtones, ringtone, concert tickets, guitar lessons, guitar tabs easy, guitar hero

Guitar Tabs Guitar Chords Bass Tabs
 Web Guitar Tabs
Guitar Lessons
 
Lyrics abcdefghijklmnopqrstuvwxyz # Top 100 Lyrics

Guitar Tabs
Guitar Tab






click on, click off


Tab for "Even Flow Intro" - Pearl Jam Rating 4Print Guitar Tabs
select alternative YouTube videos below...
Tweak the search term to refine the YouTube video results:         
Share on Facebook

Learn to play this song and others via online guitar lessons @ JamPlay.com!

this tab is 100% right!!! if u have any complaints then e-mail me at fruitcake<3boyz101@hotmail.com

standard tuning

|----5-------6----5--------------4------------3------|
|----5-7-8---6----5--------------10-----------3------|
|----------------------------------------------------|
|----------------------7h9h6-------------------------|
|----5-------6----5--6-------4-------3-2-3-2---------|
|---------------------------------------------------7|

guitar 2

|----------------------------------------------------|
|-------------------14-------------------------------|
|-----------------10---15----------------------------|
|--7/11/4--8-----9------16---------------------------|
|--8/10/4---5b-9----------16-------------------------|
|--6/9-/2-----7--------------------5------------5----|

bass(5 string)

|----------------------------------------------------|
|----------------------------------------------------|
|----------------------------------------------------|
|----------------------------------------------------|
|---3-----4----6---8------1---------9-----0----0-----|

bass 2(4 string)

|----------------------------------------------------|
|----------------------------------------------------|
|------4---------------4-----------3--------------1--|
|-0--------3---------------3--------------3----------|

mandoin

|----------------------------------------------------|
|----------------------------------------------------|
|----5-----3--------5h3----------------2------2------|
|-------------5--------------5-----------------------|

tuba

A  B  B G E D C C D D C C D C D C

recorder

1hole   3 hole 5 hole

spoons
-   - - -- -- -   -   - - -- -  -- -  ---  - - - (beet)


this is how the drums go

tum  tum tum ting tom toom boom  sheeeesh tum ba be dum de dum dum
									


911Tabs.com - tabs search engine
More "Even Flow Intro" tabs @ 911Tabs

A Guide to Tab NotationGuitar TabsGuitar ResourcesGuitar TabsPrivacy PolicyGuitar TabsContact

Online Guitar Lessons

Pearl Jam Guitar Tabs - Over 200,000 chords, guitar and bass tabs with video. Find tabs, video guitar lessons and more.