Music Guitar Tab, Tabs with MP3, ringtones, ringtone, concert tickets, guitar lessons, guitar tabs easy, guitar hero

Guitar Tabs Guitar Chords Bass Tabs
 Web Guitar Tabs
Guitar Lessons
 
Lyrics abcdefghijklmnopqrstuvwxyz # Top 100 Lyrics

Guitar Tabs
Guitar Tab






click on, click off


Tab for "Comatose" - Pearl Jam Rating 4Print Guitar Tabs
select alternative YouTube videos below...
Tweak the search term to refine the YouTube video results:         
Share on Facebook

Learn to play this song and others via online guitar lessons @ JamPlay.com!

ok. This isn't all of it. but i do
 at least have the gist of the solo. 
the REAL SHRED solo. i watched them play 
it on AOL sessions so i am 100% sure about it.

INTRO. ok. you can play it this way or do the actual chords 
that go with it. depends on what you wanna do.

   D A D  D A E  D A D
e|---------------------------------------------------------------------------|
B|-3---3~-3------3---3~------------------------------------------------------|
G|-2-2-2~-2-2----2-2-2~------------------------------------------------------|
D|-0-2-0~-0-2-2~-0-2-0~------------------------------------------------------|
A|-0-0-0~-0-0-2~-0-0-0~------------------------------------------------------|
E|------------0~-------------------------------------------------------------|


VERSE: repeat until chorus
e|---------------------------------------------------------------------------|
B|---------------------------------------------------------------------------|
G|------x9-8-----------------------------------------------------------------|
D|-9-99-x9-8-88-8888---------------------------------------------------------|
A|-9-99-x7-6-88-8888---------------------------------------------------------|
E|-7-77-x----66-6666---------------------------------------------------------|


CHORUS: same thing as intro just played more

CHORUS END: play this
e|---------------------------------------------------------------------------|
B|---------------------------------------------------------------------------|
G|---------------------------------------------------------------------------|
D|-4-44444-5-55-5555---------------------------------------------------------|
A|-4-44444-5-55-5555---------------------------------------------------------|
E|-2-22222-3-33-3333---------------------------------------------------------|


MINI SOLO
guitar 1

-----------------------------------------------------|
-----------------------12------------------------10--|
--12-11-9------12-11-9-------12-11-9------12-11-9----|
----------12-------------------------12--------------|
-----------------------------------------------------|
-----------------------------------------------------|

guitar 2

-------------------------------------------------|
-------------------------------------------------|
---------------------10----------------------10--|
--9---9--8----9---9--------9---9--8----9---9-----|
----9-----------9------------9-----------9-------|
-------------------------------------------------|

PLAY VERSE again

THEN PLAY chorus

BRIDGE
e|---------------------------------------------------------------------------|
B|---------------------------------------------------------------------------|
G|---------------------------------------------------------------------------|
D|---------------------------------------------------------------------------|
A|---------------------------------------------------------------------------|
E|-2223333555555555222333355555555000222233333333000222233333333-------------|


ok. Here is the solo. now, i dont have it all tabbed 
because it would take up my time so i am just gonna tell 
you what to play:

What you do is play around with the B Pentatonic scale.

That is this:
e|-----------------------7-10------------------------------------------------|
B|------------------7-10-----------------------------------------------------|
G|--------------7-9----------------------------------------------------------|
D|----------7-9--------------------------------------------------------------|
A|------7-9------------------------------------------------------------------|
E|-7-10----------------------------------------------------------------------|

END the solo by playing this:
e|--12b13~-------------------------------------------------------------------|


If you listen to the song then you will see that i am correct. 
100%. even watch it on AOL sessions. that shows him playing 
the scale. trust me. play it and see how correct i am.

PLAY verse

Then chorus

THEN END!!!!

YAY!




									


911Tabs.com - tabs search engine
More "Comatose" tabs @ 911Tabs

A Guide to Tab NotationGuitar TabsGuitar ResourcesGuitar TabsPrivacy PolicyGuitar TabsContact

Online Guitar Lessons

Pearl Jam Guitar Tabs - Over 200,000 chords, guitar and bass tabs with video. Find tabs, video guitar lessons and more.