Music Guitar Tab, Tabs with MP3, ringtones, ringtone, concert tickets, guitar lessons, guitar tabs easy, guitar hero

Guitar Tabs Guitar Chords Bass Tabs
 Web Guitar Tabs
Guitar Lessons
 
Lyrics abcdefghijklmnopqrstuvwxyz # Top 100 Lyrics

Guitar Tabs
Guitar Tab






click on, click off


Tab for "Comatose" - Pearl Jam Rating 4Print Guitar Tabs
select alternative YouTube videos below...
Tweak the search term to refine the YouTube video results:         
Share on Facebook

Learn to play this song and others via online guitar lessons @ JamPlay.com!

-------------------------------------------------------------------------------
			     Comatose - Pearl Jam
-------------------------------------------------------------------------------
Tabbed by: Rob T
Email:

Tuning: Standard

This is my third tab for the album "Pearl Jam". Comatose or as true fans know it Crapshoot.

Intro

e|---------------------------------------------------------------------------|
B|---3-------3-----3-----------3-------3-------------------------------------|
G|---2---2---2-----2--2--------2---2---2-------------------------------------|
D|---0---2---0-----0--2---2----0---2---0-------------------------------------|
A|-------0---0--------0---2--------0-----------------------------------------|
E|------------------------0--------------------------------------------------|
Verse
e|---------------------------------------------------------------------------|
B|---------------------------------------------------------------------------|
G|---------------------------------------------------------------------------|
D|---9-9-9-9-9--9-8--8-8-8--8-8-8-8------------------------------------------|
A|---9-9-9-9-9--7-6--8-8-8--8-8-8-8------------------------------------------|
E|---7-7-7-7-7-------6-6-6--6-6-6-6------------------------------------------| " 
me an object..."

Chorus

e|------------------2--------------------------------------------------------|
B|----3-------3-----3---2-------3------3-------------------------------------|
G|----2---2---2-----2---2-------2---2--2-------------------------------------|
D|----0---2---0-----0---2---2---0---2--0-------------------------------------|
A|--------0---0---------0---2-------0------4-4-4-4--4-4-4-5-5-5-5-5----------|
E|--------------------------0--------------2-2-2-2--2-2-2-3-3-3-3-3----------| " Feel it rising...."

Solo

E|---------------------------------------------------------------------------|
B|---------------------------------------------------------------------------|
G|----------------------10--------------------10-----------------------------|
D|----9----9-8---9----9------9----9-8--9----9--------------------------------|
A|-------9----------9-----------9---------9----------------------------------|
E|---------------------------------------------------------------------------|

Alteration after chorus

e|------------------------------------|--------------------------------|--|
B|------------------------------------|--------------------------------|--|
G|--------repeat 2x--------------------|------------repeat 2x-------------|
D|------------------------------------|--------------------------------|--|
A|------------------------------------|--------------------------------|--|
E|----2-2-2--3-3-3--5-5-5-5--5-5-5-5--|--0-0-0-2-2-2--3-3-3-3--3-3-3-3-|--| "High Above...."

Enjoy
									


911Tabs.com - tabs search engine
More "Comatose" tabs @ 911Tabs

A Guide to Tab NotationGuitar TabsGuitar ResourcesGuitar TabsPrivacy PolicyGuitar TabsContact

Online Guitar Lessons

Pearl Jam Guitar Tabs - Over 200,000 chords, guitar and bass tabs with video. Find tabs, video guitar lessons and more.