Music Guitar Tab, Tabs with MP3, ringtones, ringtone, concert tickets, guitar lessons, guitar tabs easy, guitar hero

Guitar Tabs Guitar Chords Bass Tabs
 Web Guitar Tabs
Guitar Lessons
 
Lyrics abcdefghijklmnopqrstuvwxyz # Top 100 Lyrics

Guitar Tabs
Guitar Tab






click on, click off


Tab for "Black" - Pearl Jam Rating 4Print Guitar Tabs
select alternative YouTube videos below...
Tweak the search term to refine the YouTube video results:         
Share on Facebook

Learn to play this song and others via online guitar lessons @ JamPlay.com!

Pearl Jam

-|----------------|--7---------------------|------------------|--------------- 
-|-9----9-7-7-7-7-|-10---10-10-10----------|-9--9--9-7--------|--------------- 
-|-7----7-7-7-7-7-|--9----9--9--9-0----7-7-|-7--7--7-7--7-----|--------------- 
-|-9----9-9-9-9-9-|--7----7--7--7-0-10-9-9-|-9--9--9-9--9-7-7-|--------------- 
-|-7----7-7-7-7-7-|--0----0--0--0------7-7-|-7--7--7-7--7-----|--------------- 
-|----------------|------------------------|------------------|--------------- 

Intro 

 
-|-9---9-------------------------|-----------------------|-------------------- 
-|-7---7--10-10-10-10-10-10-10---|-9-----9-9-9-7-7-7-7-7-|-------------------- 
-|-9---9---9--9--9--9--9--9--9-7-|-7-----7-7-7-7-7-7-7-7-|-------------------- 
-|-7---7---7--7--7--7--7--7--7-9-|-9-----9-9-9-9-9-9-9-9-|-------------------- 
-|-0---0-----------------------7-|-7-----7-7-7-7-7-7-7-7-|-------------------- 
-|-------------------------------|-----------------------|-------------------- 

   
-|-5--5---5-5-5-----|------------|----------------|--------------------------- 
-|-5--5---5-5-5-----|----9---9-9-|-9--------------|--------------------------- 
-|-6--6---6-6-6-----|----9---9-9-|-9--------------|--------------------------- 
-|-7--7---7-7-7-----|----9---9-9-|-9--------------|--------------------------- 
-|-7--7---7-7-7-----|-7------7-7-|-7--------------|--------------------------- 
-|-5--5---5-5-5-0-0-|-0----------|----------------|--------------------------- 
  
  
-|-----------|--------------------|---------------|-------------------------|- 
-|-9-----9-7-|-10---10-10-10------|-9----7--------|-------10-10-10-10-9-9-9-|- 
-|-7-----7-7-|--9----9--9--9-7----|-7----7--9-9-9-|-9-9----9--9--9--9-7-7-7-|- 
-|-9-----9-9-|--7----7--7--7---10-|-9----9--7-7-7-|-7-7----7--7--7--7-9-9-9-|- 
-|-7-----7-7-|--0-----------------|-7----7--------|-------------------------|- 
-|-----------|--------------------|---------------|-------------------------|- 
Verse 
  
-|------------|--------------------|--------------|---|----------------------- 
-|-9----9-7-7-|-10--10-------------|-9---x--9-9-9-|-9-|----------------------- 
-|-7----7-7-7-|--9---9-9-9-9-9-7---|-9---x--9-9-9-|-9-|----------------------- 
-|-9----9-9-9-|--7-----7-7-7-7---9-|-9---x--9-9-9-|-9-|----------------------- 
-|-7----7-7-7-|--0-----------------|-7---x--7-7-7-|-7-|----------------------- 
-|------------|--------------------|--------------|---|----------------------- 

with Fill 1 Repeat simile with Fill 2 

  
-|----------------------|---------5h7--------|--14-12--9---7--------|--------- 
-|----------------------|--10-----5h7--------|--14-12--9---7---9----|--------- 
-|-----------9--------9-|---9----------7-6-4-|-----------------9----|--------- 
-|-9----9----9---9h11---|---7----------------|-------------------11-|--------- 
-|-7----9h11------------|--------------------|----------------------|--------- 
-|----------------------|--------------------|----------------------|--------- 

G2 verse 

-|-------5-----------|--------------------|-12---------------------------|---- 
-|-------5h7--5------|--------------------|-12h14-12-12-10------10-------|---- 
-|--------------6-4--|-----------9------9-|----------------9-------9-----|---- 
-|-11----------------|-----------9------9-|------------------12------11--|---- 
-|-------------------|------9h11---9h11---|------------------------------|---- 
-|-------------------|--------------------|------------------------------|---- 

    
-|----12---12--9-------------------|---------------|-12----------------|------ 
-|----12---12--9--9--9---9--9------|------9--------|-12----------------|------ 
-|---------------11--9--11--9------|------9h11-9---|-------------------|------ 
-|---------------------------------|---------------|-------------------|------ 
-|---------------------------------|---------------|-------------------|------ 
-|---------------------------------|---------------|-------------14\---|------ 

2x Fill 1 Fill 2 


-|-0----|-0---3-3-3-|-0-|-0-----------------|---0----2-|---------------------- 
-|-1----|-0---3-3-3-|-1-|-0-----------------|---0----3-|---------------------- 
-|-0----|-0---0-0-0-|-0-|-0-------0-2p0-----|---0----2-|---------------------- 
-|-2----|-2---0-0-0-|-2-|-2-----------------|---2----0-|---------------------- 
-|-3----|-2---2-2-2-|-3-|-2---2/5-----------|---2------|---------------------- 
-|------|-0---3-3-3-|---|-0-------------3b4-|-0-0------|---------------------- 

Chorus(with Fill 3) With Fill 4 2nd time 

  
-|--2--2--2-0-|-0--0-0-0-0-|-0--0--0-2-|-2-2-2-2--0-|-0-0-0-0-|--------------- 
-|--3--3--3-1-|-1--1-1-1-0-|-0--0--0-3-|-3-3-3-3--1-|-1-1-1-0-|--------------- 
-|--2--2--2-0-|-0--0-0-0-0-|-0--0--0-2-|-2-2-2-2--0-|-0-0-0-0-|--------------- 
-|--0--0--0-2-|-2--2-2-2-2-|-2--2--2-0-|-0-0-0-0--2-|-2-2-2-2-|--------------- 
-|--5--5--5-3-|-3--3-3-3-2-|-2--2--2---|----------3-|-3-3-3-2-|--------------- 
-|------------|----------0-|-0--0--0---|------------|-------0-|--------------- 
  

-|--8---8---8--8---8--8-|--8---8---8-10-10-10-10---8--|---------------------|- 
-|--8---8---8--8---8--8-|--8---8---8--8--8--8--8---8--|-------7-7-7-7-5-5-5-|- 
-|--9---9---9-11--11--9-|--9---9---9--9--9--9--9---9--|-------5-5-5-5-5-5-5-|- 
-|-10--10--10-10--10-10-|-10--10--10-10-10-10-10--10--|-5-----7-7-7-7-5-5-5-|- 
-|----------------------|-----------------------------|-3-------------------|- 
-|----------------------|-----------------------------|---------------------|- 

Fill 3 Fill 4 

  
-|----------------|--------------|-0-0---0-2-|-2-2-2-2-2-2-0-|---------------- 
-|----------------|--------------|-0-0---0-3-|-3-3-3-3-3-3-1-|---------------- 
-|----------------|--------------|-0-0---0-2-|-2-2-2-2-2-2-0-|---------------- 
-|----------------|--------------|-2-2---2-0-|-0-0-0-0-0-0-2-|---------------- 
-|----------------|--------------|-2-2---2---|-------------3-|---------------- 
-|----------------|--------------|-0-0---0---|---------------|---------------- 

2nd verse, same Chorus, same "all the love gone bad..." 
-|-0-0-0-0-0-0-2-|-2-2--2-2-2-0-|--0--0--0--0-0-|-0-0--0-0-0-2-|-------------- 
-|-1-1-1-1-1-1-3-|-3-3--3-3-3-1-|--1--1--1--1-0-|-0-0--0-0-0-3-|-------------- 
-|-0-0-0-0-0-0-2-|-2-2--2-2-2-0-|--0--0--0--0-0-|-0-0--0-0-0-2-|-------------- 
-|-2-2-2-2-2-2-0-|-0-0--0-0-0-2-|--2--2--2--2-2-|-2-2--2-2-2-0-|-------------- 
-|-3-3-3-3-3-3---|------------3-|--3--3--3--3-2-|-2-2--2-2-2---|-------------- 
-|---------------|--------------|-------------0-|-0-0--0-0-0---|-------------- 

Continue D C E for rest of song 

  
-|-------------------------------------------------------------------------|-- 
-|------------------------------------------------------------9---7-5-5-5-5|-- 
-|---------------------------9-11b12r11-9-11-9-9-9-9-9-9--9-9-9-9-7--------|-- 
-|-------------------------------------------------------------------------|-- 
-|-------------------------------------------------------------------------|-- 
-|-------------------------------------------------------------------------|-- 

"..all i'll be...yeah..." 

  
-|-----------------0-|-0-0-0-0-0-0-0-0-|-15-15-15-15-|--15--15-15-15-|-------- 
-|-5-5-5-5-5-5-5-5-5-|-5-5-5-5-5-5-5-5-|-15-15-15-15-|--15--15-15-13-|-------- 
-|-5-5-5-5-5-5-5-5---|-----------------|-------------|---------------|-------- 
-|-------------------|-----------------|-------------|---------------|-------- 
-|-------------------|-----------------|-------------|---------------|-------- 
-|-------------------|-----------------|-------------|---------------|-------- 

Play bar 6 times 

  
-|-15-15-15-15-15------|----------------------------------------------------|- 
-|-13-13-13-13-13-12vvv|-12-13-13h15-13-12-13-12vvvv-12-13-15-13-12-13-12vvv|- 
-|---------------------|----------------------------------------------------|- 
-|---------------------|----------------------------------------------------|- 
-|---------------------|----------------------------------------------------|- 
-|---------------------|----------------------------------------------------|- 
Play 4 times 
-|------------------------|-15-15-15-15-15-15-15-|-15-15-15-------------|----- 
-|-12-13-15-13-12-13-12vvv|-15-15-15-15-15-15-15-|-15-15-15-12-13-12vvv-|----- 
-|------------------------|----------------------|----------------------|----- 
-|------------------------|----------------------|----------------------|----- 
-|------------------------|----------------------|----------------------|----- 
-|------------------------|----------------------|----------------------|----- 

  
-|-12-12-12-12-12-12-12-0-0-0-0-0-0-0-0-|-0-0-0-0-0-0-0-0-0-0-0-0-0-0-0-0--|-- 
-|-12-12-12-12-12-12-12-5-5-5-5-5-5-5-5-|-5-5-5-5-5-5-5-5-5-5-5-5-5-5-5-5--|-- 
-|--------------------------------------|----------------------------------|-- 
-|--------------------------------------|----------------------------------|-- 
-|--------------------------------------|----------------------------------|-- 
-|--------------------------------------|----------------------------------|--
									


911Tabs.com - tabs search engine
More "Black" tabs @ 911Tabs

A Guide to Tab NotationGuitar TabsGuitar ResourcesGuitar TabsPrivacy PolicyGuitar TabsContact

Online Guitar Lessons

Pearl Jam Guitar Tabs - Over 200,000 chords, guitar and bass tabs with video. Find tabs, video guitar lessons and more.