Music Guitar Tab, Tabs with MP3, ringtones, ringtone, concert tickets, guitar lessons, guitar tabs easy, guitar hero

Guitar Tabs Guitar Chords Bass Tabs
 Web Guitar Tabs
Guitar Lessons
 
Lyrics abcdefghijklmnopqrstuvwxyz # Top 100 Lyrics

Guitar Tabs
Guitar Tab






click on, click off


Tab for "Better Man" - Pearl Jam Rating 4Print Guitar Tabs
select alternative YouTube videos below...
Tweak the search term to refine the YouTube video results:         
Share on Facebook

Learn to play this song and others via online guitar lessons @ JamPlay.com!

Pearl Jam - Better Man
Nathan Kulas
This is one of my first tabs.. I have only tabbed a few songs,
but I only do it when I know its right, so here it is:

|---------------------------------------------------|
|-o---3-0-----3-0----------5-0-----5---5---5------o-|
|-----2-------2---2/4------4---4-----4---4---4\2----|   (x3)
|---------------------------------------------------|
|-o-----------------------------------------------o-|
|---2-----0h2----------0-4--------------------------|

Waiting watching the clock
its 4 o'clock its got to stop

|-------------------------------------------------|
|---3-0-----3-0----------5-0-----5---5---5--------|
|---2-------2---2/4------4---4-----4---4---4\7----|  
|-------------------------------------------------|
|-------------------------------------------------|
|-2-----0h2----------0-4--------------------------|

tell me take no more 
she practices her speech


|----------------------------------------------|
|-8---8/10---10---10/8--8---8/10---------------|
|-7-7-7/9-----9-9--9/7--7-7-7/9----------------|
|----------------------------------------------|
|----------------------------------------------|
|----------------------------------------------|

as he opens the door she rolls over
pretends to sleep as he looks her over

|-2---2-----0---0-----3---3---3---3/2----|
|-3-3---3/2-2-2---2/3-3-3---3-3-3--------|
|-2---------2---------0-------0----------|
|-0---------2---------0-------0----------|
|---------------------2-------2----------|
|---------------------3-------3----------|

She lies and says she's in love with him
Can't find a better man


|-2---2-----0---0-----3---3---3-3--3-3----|
|-3-3---3/2-2-2---2/3-3-3---3-3-3--2-2-2--|
|-2---------2---------0-------0-0--3-3-2--|
|-0---------2---------0-------0-0------2--|
|---------------------2-------2-2---------|
|---------------------3-------3-3---------|

She dreams in color she dreams in red
Can't find a better man

|------------3-3-2-2-2---------------------|
|-2-2-2-2-2--3-3-3-3-3/2-------------------|
|-2-2-2-2-2--0-0-2-2-2---------------------|
|-2-2-2-2-2--0-0---------------------------|
|------------2-2---------------------------|
|------------3-3---------------------------|

Can't find a better man
Can't find a better man
Ooooh

|---------------------------------------------|
|-------3-0-----3-0----------5---5---5--------|
|-2-2-2-2-------2---2/4--------4---4---4\2----|  
|---------------------------------------------|
|---------------------------------------------|
|-----------0h2----------0-4------------------|

|-----------------------------------------------|
|-3-0-----3-0----------5-0-----5---5---3-0------|
|-2-------2---2/4------4---4---4-4-4\2-2---2/4--|  
|-----------------------------------------------|
|-----------------------------------------------|
|-----0h2----------0-4--------------------------|

Talking to her self there's no one else
who needs to know she tells her self

|--------------0-0-0-0-0------|
|-3---3/5-5----5-5-5-5-5/3----|
|-2-2-2/4-4-4--4-4-4-4-4/2----|
|-----------------------------|
|-----------------------------|
|-----------------------------|

The Rest of the song is Chords:

 D             A            D
Memories, back when she was smooth
               A              G       D 
and strong and waited for the world to come along
A                     G
swears she knew it now she swears he's gone 

D            A                       G
She lies and says she's in love with him
D            A
Can't find a better man 
D             A                    G
She dreams in colour she dreams in red
D            A          
Can't find a better man 
D            A
Can't find a better man

D            A                   G
She lies and says she still loves him
D            A
Can't find a better man 
D             A                    G
She dreams in colour she dreams in red
D            A          
Can't find a better man 
D            A
Can't find a better man
D            A
Can't find a better man

~Electric solo unknown~

She loved him.. yeah 
She don't want to leave this way 
She feeds him.. yeah 
That's why she'll be back again 
Can't find a better man  (can't find a better man)
Can't find a better man  (can't find a better man)
Can't find a better man  (can't find a better man)
Can't find a better man  (can't find a better man)
Can't find a better man  (can't find a better man)
									


911Tabs.com - tabs search engine
More "Better Man" tabs @ 911Tabs

A Guide to Tab NotationGuitar TabsGuitar ResourcesGuitar TabsPrivacy PolicyGuitar TabsContact

Online Guitar Lessons

Pearl Jam Guitar Tabs - Over 200,000 chords, guitar and bass tabs with video. Find tabs, video guitar lessons and more.