Music Guitar Tab, Tabs with MP3, ringtones, ringtone, concert tickets, guitar lessons, guitar tabs easy, guitar hero

Guitar Tabs Guitar Chords Bass Tabs
 Web Guitar Tabs
Guitar Lessons
 
Lyrics abcdefghijklmnopqrstuvwxyz # Top 100 Lyrics

Guitar Tabs
Guitar Tab






click on, click off


Tab for "Around The Bend Acoustic" - Pearl Jam Rating 4Print Guitar Tabs
select alternative YouTube videos below...
Tweak the search term to refine the YouTube video results:         
Share on Facebook

Learn to play this song and others via online guitar lessons @ JamPlay.com!

----------------------------------------------------------------------
		Around the Bend (Acoustic) - Pearl Jam
----------------------------------------------------------------------
Tabbed by:simmers33
Email:simmers33@netscape.net

Tuning:standard

Simple PJ song!  I listened to 2003 recording on Live at Benayora Hall
to figure it out. I did not see a good tab for this little song so here it is.  They are 
3 guitars, but I think this sounds
good if you just want to play it with one.

intro/between verses

e||(0)----(0)----(0)0-|-0----0----0----0-|-----------------0-|
B||-7------7----7-7-7-|-7----5----2----5-|-3----3-3----3-3-3-|
G||.0----0-0----0-0-0-|-0----0----0----0-|-2----2-2----2-2-2-|
D||.7----7-7----7-7-7-|-7----5----2----5-|-0----0-0----0-0-0-|
A||-0----0-0----0-0-0-|-0----0----0----0-|-------------------|
E||-------------------|------------------|-------------------|

e|-0--2-------3-2-0-2-|
B|-3--3---3---3-3-3-3-|
G|-2--2---2---2-2-2-2-|
D|-0--0---0---0-0-0-0-|
A|--------------------|
E|--------------------|


e||(0)----(0)----(0)0-|-0----0----0----0-|-------------------|
B||-7------7----7-7-7-|-7----5----2----5-|-3----3-3----3-3-3-|
G||-0----0-0----0-0-0-|-0----0----0----0-|-2----2-2----2-2-0-|
D||-7----7-7----7-7-7-|-7----5----2----5-|-0----0-0----0-0-0-|
A||-0----0-0----0-0-0-|-0----0----0----0-|-------------------|
E||-------------------|------------------|-------------------|


e|--------------------||
B|-3-3---3----3-3-3-3-||
G|-0-2---2----4-2-0-2.||
D|-0-0---0----0-0-0-0.||
A|--------------------||
E|--------------------||


Verses

e||(0)----(0)----(0)0-|-0----0----0----0-|-----------------0-|
B||-7------7----7-7-7-|-7----5----2----5-|-3----3-3----3-3-3-|
G||.0----0-0----0-0-0-|-0----0----0----0-|-2----2-2----2-2-2-|
D||.7----7-7----7-7-7-|-7----5----2----5-|-0----0-0----0-0-0-|
A||-0----0-0----0-0-0-|-0----0----0----0-|-------------------|
E||-------------------|------------------|-------------------|

1a. I             am    wishing  you   a   well
1c. Covers              up,  I  cast you   off

2a. I       hold your   head deep in my    arms
2c. Off          you    dream my little   child

3a. All          the   evenings close like this
3c. Please       for - give me won't you   dear

4a. You're        an   an - gel when you   sleep


e|-0h2-----3--2--0--2-|
B|-3----3--3--3--3--3-| (after verses 2c, 3c, 4a go to
G|-2----2--2--2--2--2-|  chorus 2, 3 and 4)
D|-0----0--0--0--0--0-|
A|--------------------|
E|--------------------|


e||(0)----(0)----(0)0-|-0----0----0----0-|-------------------|
B||-7------7----7-7-7-|-7----5----2----5-|-3----3-3----3-3-3-|
G||-0----0-0----0-0-0-|-0----0----0----0-|-2----2-2----2-2-0-|
D||-7----7-7----7-7-7-|-7----5----2----5-|-0----0-0----0-0-0-|
A||-0----0-0----0-0-0-|-0----0----0----0-|-------------------|
E||-------------------|------------------|-------------------|

1b. mind        at    peace within your  cell
1d. I'll          be    watching as  you   breathe

2b. My     fingertips   they close your    eyes

3b. All         these   mo-ments that  I   missed


e|------------3-2-0-2-||
B|-3--3--3----3-3-3-3-||
G|-0--2--2----2-4-2-0.||
D|-0--0--0----0-0-0-0.|| After verse 1d go to chorus 1
A|--------------------||
E|--------------------||

_____________________________________________________________
chorus

e||(0)----(0)----(0)0-|-0----0----0----0-|-----------------0-|
B||-7------7----7-7-7-|-7----5----2----5-|-3----3-3----3-3-3-|
G||.0----0-0----0-0-0-|-0----0----0----0-|-2----2-2----2-2-2-|
D||.7----7-7----7-7-7-|-7----5----2----5-|-0----0-0----0-0-0-|
A||-0----0-0----0-0-0-|-0----0----0----0-|-------------------|
E||-------------------|------------------|-------------------|

1.  I           lie    still, you move, I  send
2.  There's       a    sun  a -round  the  bend
3.  Please       for - give and let  me    share
4.  How          I     want your soul to   keep


e|--------------------|--------0---------|-------------------|
B|--------3----3------|-------------3----|-------------------|
G|-2----2-2----2------|------------------|-------------------|
D|-0----0-0----0------|------------------|-------------------|
A|-x----x-x----x--0-1-|-2----2-----------|-1-----------------|
E|-1----1-------------|------------------|-------------------|
        [______]	       [_____________________________]
       hold F note              let ring

1. you                  off around the    bend.....
2.           There's a  sun around the    bend.....
3. with                 you around the    bend.....
4. on             and   on  around the    bend  (END)

(go to intro after each chorus except the last one)


| /  slide up
| \  slide down
| h  hammer-on
| p  pull-off
| ~  vibrato
| +  harmonic
| x  Mute note
===============================================================================
									


911Tabs.com - tabs search engine
More "Around The Bend Acoustic" tabs @ 911Tabs

A Guide to Tab NotationGuitar TabsGuitar ResourcesGuitar TabsPrivacy PolicyGuitar TabsContact

Online Guitar Lessons

Pearl Jam Guitar Tabs - Over 200,000 chords, guitar and bass tabs with video. Find tabs, video guitar lessons and more.