Music Guitar Tab, Tabs with MP3, ringtones, ringtone, concert tickets, guitar lessons, guitar tabs easy, guitar hero

Guitar Tabs Guitar Chords Bass Tabs
 Web Guitar Tabs
Guitar Lessons
 
Lyrics abcdefghijklmnopqrstuvwxyz # Top 100 Lyrics

Guitar Tabs
Guitar Tab






click on, click off


Tab for "Alive Solo" - Pearl Jam Rating 4Print Guitar Tabs
select alternative YouTube videos below...
Tweak the search term to refine the YouTube video results:         
Share on Facebook

Learn to play this song and others via online guitar lessons @ JamPlay.com!

Solo starts at 3:38 into the song. All rights belong to Pearl Jam.

\: slide down
/: slide up
h: hammer on
p: pull off
b: bend up to note between ()
r: release bend
~: vibrato
+: represents the beat

-|-------------------------------------------------------|--------------------|
-|-15b17r15-12-------------------------------------------|--------------------|
-|-------------14b16r14-12-------12----12-12-14p12----12-|--------------------|
-|-------------------------14-------14-------------14----|--------------------|
-|-------------------------------------------------------|--------------------|
-|-------------------------------------------------------|--------------------|


-|----------------------------------------------|-----------------------------|
-|-------------------------------------------12-|-----------------------------|
-|-14b16--14b16--14b16r14-12-14-12vvvv-14b16----|-----------------------------|
-|----------------------------------------------|-----------------------------|
-|----------------------------------------------|-----------------------------|
-|----------------------------------------------|-----------------------------|


-|----------12----------12-------------------------------------------|--------|
-|-------12----12-15b17----15p12----12-------------------------------|--------|
-|-14b16-------------------------14----14b16r14p12-14-14-12-14-12vvv-|--------|
-|-------------------------------------------------------------------|--------|
-|-------------------------------------------------------------------|--------|
-|-------------------------------------------------------------------|--------|


-|-------------------------------------|--------17b19v-17b19r17-15-----------|
-|---------------------------------0-0-|-17b19v--------------------17--------|
-|---------------------------------0-0-|------------------------------14/16--|
-|-14-12-------------------------------|-------------------------------------|
-|-------14-13-12-10-12-10-12b14vv-----|-------------------------------------|
-|-------------------------------------|-------------------------------------|


-|-------------15-------------------------------|-----------------------|-----|
-|-15-17----------17--------------------0-------|-----------------------|-----|
-|-------16b18-------16\14p12-14-12vvv--0-2b4vvv|vvvvvvvv-----2b4r2--0--|-----|
-|----------------------------------------------|-----------------------|-----|
-|----------------------------------------------|-----------------------|-----|
-|----------------------------------------------|-----------------------|-----|


-|-------------0-3-0-3-5b7-r5-12-------|-----------------------------------|--|
-|-----0-3-0-3-------------------15-12-|---------------------3-3---5-3---3-|--|
-|-2b4---------------------------------|-2b4vvvvvvvv-2-0-2/4-----4-----4---|--|
-|-------------------------------------|-----------------------------------|--|
-|-------------------------------------|-----------------------------------|--|
-|-------------------------------------|-----------------------------------|--|

-|-----------3-5-5b7-r5p3-5-3----------|-2h3-2---2h3-2---2p0--------------|---|
-|-5vvvvvv-5------------------5-----5/-|---------------------3---3---3-3--|---|
-|-------------------------------------|----------------------------------|---|
-|-------------------------------------|----------------------------------|---|
-|-------------------------------------|----------------------------------|---|
-|-------------------------------------|----------------------------------|---|

-|---0-0-3-0-3-0--------------------------|-----------------------------------|
-|-3-------------12----12-12--------------|-----------------------------------|
-|---------------14b16-------14b16r14-----|-----------------------------------|
-|----------------------------------------|-----------------------------------|
-|----------------------------------------|-----------------------------------|
-|----------------------------------------|-----------------------------------|

-|-------12-12-12-------12---------15-15-------15-15--|-----------------------|
-|-15b17----------15b17------18b20-------18b20--------|-----------------------|
-|----------------------------------------------------|-----------------------|
-|----------------------------------------------------|-----------------------|
-|----------------------------------------------------|-----------------------|
-|----------------------------------------------------|-----------------------|

-|-14-------14-14----14-14-14-12-------12-12-------12-12-12-|-----------------|
-|----17b19-------17-------------15b17-------15b17----------|-----------------|
-|----------------------------------------------------------|-----------------|
-|----------------------------------------------------------|-----------------|
-|----------------------------------------------------------|-----------------|
-|----------------------------------------------------------|-----------------|

-|-------------12-12-------12-12-12---------15-15-------15-15--|--------------|
-|-15p12-15b17-------15b17------------18b20-------18b20--------|--------------|
-|-------------------------------------------------------------|--------------|
-|-------------------------------------------------------------|--------------|
-|-------------------------------------------------------------|--------------|
-|-------------------------------------------------------------|--------------|

-|-12-15p12----12-15-12-15b17-15vv\----------|--------------------------------|
-|----------15-------------------------------|--------------------------------|
-|----------------------------------7/12\-/--|--------------------------------|
-|-------------------------------------------|--------------------------------|
-|-------------------------------------------|--------------------------------|
-|-------------------------------------------|--------------------------------|

-|-15b17--15--12-15-12-12-------12--------------------------|-----------------|
-|------------------------15b17----15p12-------12-----------|-----------------|
-|---------------------------------------14b16----14b16-----|-----------------|
-|----------------------------------------------------------|-----------------|
-|----------------------------------------------------------|-----------------|
-|----------------------------------------------------------|-----------------|

-|----------------------------------------------|-----------------------------|
-|-------------------------------12vvv-12-12-12-|-----------------------------|
-|-14b16r14-12----12-14-12-14-14-12vvv-12-12-12-|-----------------------------|
-|-------------14-------------------------------|-----------------------------|
-|----------------------------------------------|-----------------------------|
-|----------------------------------------------|-----------------------------|

-|-------12-----------12-----------12-----------12-----------12-----------|---|
-|---------15p12--------15p12--------15p12--------15p12--------15p12------|---|
-|-14b16--------14b16--------14b16--------14b16--------14b16--------14b16-|---|
-|------------------------------------------------------------------------|---|
-|------------------------------------------------------------------------|---|
-|------------------------------------------------------------------------|---|

-|-12-----------12-----------12---------------------|-------------------------|
-|---15p12--------15p12---------15p12---------12----|-------------------------|
-|--------14b16--------14b16------------------12----|-------------------------|
-|-----------------------------------------------14-|-------------------------|
-|--------------------------------------------------|-------------------------|
-|------------------------------------15\-----------|-------------------------|

-|----------------------------------------|-----------------------------------|
-|-14-12vvv------------14-12vvv-----------|-----------------------------------|
-|-14-12vvv--14-12-----14-12vvv--14-12----|-----------------------------------|
-|-----------------14------------------14-|-----------------------------------|
-|----------------------------------------|-----------------------------------|
-|----------------------------------------|-----------------------------------|

-|-------------------------12-12-------12-12-------15-|-----------------------|
-|-------12----12-------12-12-12-------12-12----------|-----------------------|
-|-14vvv-12----12-14b16----------14b16-------14b16----|-----------------------|
-|----------14----------------------------------------|-----------------------|
-|----------------------------------------------------|-----------------------|
-|----------------------------------------------------|-----------------------|

-|-------15-------15-------15-------15-------15----|--------------------------|
-|-15----15-15----15-15----15-15----15-15-------15-|--------------------------|
-|-14b16----14b16----14b16----14b16----14b16----16-|--------------------------|
-|-------------------------------------------------|--------------------------|
-|-------------------------------------------------|--------------------------|
-|-------------------------------------------------|--------------------------|
                                   hold bend--|


-|--------------------------------------0---0-0-|-------------------------------|
-|-15-----------------------------------3/5-5-5-|-------------------------------|
-|-16r14-12----12-14-14-14---14-14-14-----------|-------------------------------|
-|----------14----------------------------------|-------------------------------|
-|----------------------------------------------|-------------------------------|
-|----------------------------------------------|-------------------------------|


-|-0------0--0--3--0--0--0--5--0--0--0--3--0--0--0--|-------------------------|
-|-3-/-5--5--5--5--5--5--5--5--5--5--5--5--5--5--5--|-------------------------|
-|--------------------------------------------------|-------------------------|
-|--------------------------------------------------|-------------------------|
-|--------------------------------------------------|-------------------------|
-|--------------------------------------------------|-------------------------|


-|-0------0--0--3--0--0--0--15b17-12-12-------12-------12-12-|----------------|
-|-3-/-5--5--5--5--5--5--5--------------15b17----15b17-------|----------------|
-|-----------------------------------------------------------|----------------|
-|-----------------------------------------------------------|----------------|
-|-----------------------------------------------------------|----------------|
-|-----------------------------------------------------------|----------------|

-|-15b17-12-12-------12-12-------12-12-------12-12--15p12-15-15-|-------------|
-|-------------15b17-------15b17-------15b17--------------------|-------------|
-|--------------------------------------------------------------|-------------|
-|--------------------------------------------------------------|-------------|
-|--------------------------------------------------------------|-------------|
-|--------------------------------------------------------------|-------------|

-|-17b19--17--15-17-15b16--------------------|--------------------------------|
-|-------------------------17-15----15-17p15-|--------------------------------|
-|-------------------------------16----------|--------------------------------|
-|-------------------------------------------|--------------------------------|
-|-------------------------------------------|--------------------------------|
-|-------------------------------------------|--------------------------------|


-|-17b19--17--15-17-15b16-------------------|---------------------------------|
-|-------------------------17-15----15------|---------------------------------|
-|-------------------------------16----16\--|---------------------------------|
-|------------------------------------------|---------------------------------|
-|------------------------------------------|---------------------------------|
-|------------------------------------------|---------------------------------|

-|----------------------12--------------------------------|-------------------|
-|-------------------12----12-15b17vvvv-15b17-15b17r15p12-|-------------------|
-|-14-12----12-14b16--------------------------------------|-------------------|
-|-------14-----------------------------------------------|-------------------|
-|--------------------------------------------------------|-------------------|
-|--------------------------------------------------------|-------------------|

-|-------12-----------12-15p12------12-----------12-----------12--------|-----|
-|---------15p12----------------------15p12--------15p12--------15p12---|-----|
-|-14b16--------14b16---------14b16--------14b16--------14b16--------14-|-----|
-|----------------------------------------------------------------------|-----|
-|----------------------------------------------------------------------|-----|
-|----------------------------------------------------------------------|-----|

-|-----------------------------------------------|----------------------------|
-|-------12-12-12-------12-----------------------|----------------------------|
-|-14b16----------14b16----15-14-12---12vvvv-----|----------------------------|
-|---------------------------------14------------|----------------------------|
-|-----------------------------------------------|----------------------------|
-|-----------------------------------------------|----------------------------|

-|------------------------------------|--------------------------x-x-|--------|
-|-12----12--------14-----15----------|-17------17-----17------------|--------|
-|-14b16-14b16vvvv-16b18--17b19vvvvvv-|-19b21---19b21--19b21vvv------|--------|
-|------------------------------------|------------------------------|--------|
-|------------------------------------|------------------------------|--------|
-|------------------------------------|------------------------------|--------|

-|-12-------14----15-------15-------|-17-------------------------------------|
-|-15b17vvv-17b19-18b20vvv-18b20vvv-|-20b22vvvv-20b22-20b24-20b22r20-17h20---|
-|----------------------------------|----------------------------------------|
-|----------------------------------|----------------------------------------|
-|----------------------------------|----------------------------------------|
-|----------------------------------|----------------------------------------|

-|--------------------------------|--------||---------------------------------|
-|-p17vvvvvv-\--------------------|--------||---------------------------------|
-|--------------------------------|--------||---------------------------------|
-|--------------------------------|--------||---------------------------------|
-|--------------------------------|--------||---------------------------------|
-|--------------------------------|--------||---------------------------------|
End


Credit goes to Evan Cowan.
Thanks!
									


911Tabs.com - tabs search engine
More "Alive Solo" tabs @ 911Tabs

A Guide to Tab NotationGuitar TabsGuitar ResourcesGuitar TabsPrivacy PolicyGuitar TabsContact

Online Guitar Lessons

Pearl Jam Guitar Tabs - Over 200,000 chords, guitar and bass tabs with video. Find tabs, video guitar lessons and more.