Music Guitar Tab, Tabs with MP3, ringtones, ringtone, concert tickets, guitar lessons, guitar tabs easy, guitar hero

Guitar Tabs Guitar Chords Bass Tabs
 Web Guitar Tabs
Guitar Lessons
 
Lyrics abcdefghijklmnopqrstuvwxyz # Top 100 Lyrics

Guitar Tabs
Guitar Tab






click on, click off


Tab for "Something In The Way" - Nirvana Rating 4Print Guitar Tabs
select alternative YouTube videos below...
Tweak the search term to refine the YouTube video results:         
Share on Facebook

Learn to play this song and others via online guitar lessons @ JamPlay.com!

####################################
#                                  #
# Artist    : Nirvana              #
# Song      : Something in The way #
# Album     : Nevermind            #
# -------------------------------- #
# Tabbed by : floverdevel          #
#                                  #
####################################


tunnig : 1 step down + dropped C = CGCF (low to high)

Verse:
    E               C
F||--------------------------------||
C||--------------------------------||
G||--------------------------------||
C||-4-------4---4-4-0-------0---0-0||

Chorus:
    E               C
F||--------------------------------|
C||--------------------------------|
G||-----------------5--------------|
C||-4-------7---------------7------|

    E               C
F  --------------------------------|
C  --------------------------------|
G  -----------------5-------7------|
C  -4-------7----------------------|

    E               C
F  --------------------------------|
C  --------------------------------|
G  -----------------5--------------|
C  -4-------7---------------7------|

    E               C
F  --------------------------------||
C  --------------------------------||
G  -----------------5------(5)-----||
C  -4-------7----------------------||

Have fun :)
									


911Tabs.com - tabs search engine
More "Something In The Way" tabs @ 911Tabs

A Guide to Tab NotationGuitar TabsGuitar ResourcesGuitar TabsPrivacy PolicyGuitar TabsContact

Online Guitar Lessons

Nirvana Guitar Tabs - Over 200,000 chords, guitar and bass tabs with video. Find tabs, video guitar lessons and more.