Music Guitar Tab, Tabs with MP3, ringtones, ringtone, concert tickets, guitar lessons, guitar tabs easy, guitar hero

Guitar Tabs Guitar Chords Bass Tabs
 Web Guitar Tabs
Guitar Lessons
 
Lyrics abcdefghijklmnopqrstuvwxyz # Top 100 Lyrics

Guitar Tabs
Guitar Tab






click on, click off


Tab for "Kahit Pa" - Hale Rating 4Print Guitar Tabs
select alternative YouTube videos below...
Tweak the search term to refine the YouTube video results:         
Share on Facebook

Learn to play this song and others via online guitar lessons @ JamPlay.com!

-----------------------------------------------------------------------------
			     Kahit Pa - Hale
-----------------------------------------------------------------------------

Tabbed by: gio bueno

guys, this song was easy to figure out... 
I listened to this song a couple of times and... yeah
its really cool. i didnt add the solo part(im still working on it).
And as we all said many times, this tab may not me
100% correct right? any of your violent reactions can be 
sent to this email address --> maverick_00080@yahoo.com.... you feel me???? 

Tuning: eBGDAE

Intro:
e|--x--x--x----x-x-x---x--x--x-----------------------|
B|--x--x--x----x-x-x---10-10-10(pause the 2nd time)--|
G|--10-10-10---5-5-5---10-10-10(pause the 2nd time)--|2x
D|--10-10-10---5-5-5---8--8--8-(pause the 2nd time)--|
A|--8--8--8----3-3-3---x--x--x-----------------------|
E|--x--x--x----x-x-x---x--x--x-----------------------|

Verse:
e|--x--x--x----x-x-x---x-x-x-x-x--|
B|--x--x--x----x-x-x---x-x-x-x-x--|
G|--10-10-10---5-5-5---2-2h3-2h3--|
D|--10-10-10---5-5-5---3-3-3-3-3--|
A|--8--8--8----3-3-3---1-1-1-1-1--|
E|--x--x--x----x-x-x---x-x-x-x-x--|

e|--x--x--x----x-x-x---x-x-x-x-x-x---------------|
B|--x--x--x----x-x-x---x-x-x-x-x-x---------------|
G|--10-10-10---5-5-5---2-2-2h3-2h3--10/5(pause)--|
D|--10-10-10---5-5-5---3-3-3-3-3-3---------------|
A|--8--8--8----3-3-3---1-1-1-1-1-1---------------|
E|--x--x--x----x-x-x---x-x-x-x-x-x---------------|

Refrain:
e|--x-x-x---x-x-x---x-x-x--|
B|--x-x-x---x-x-x---x-x-x--|
G|--7-7-7---5-5-5---3-3-3--|
D|--7-7-7---5-5-5---3-3-3--|
A|--5-5-5---3-3-3---1-1-1--|
E|--x-x-x---x-x-x---x-x-x--|

e|--x-x-x---x-x-x---x-x-x--x-x-x---------|
B|--x-x-x---x-x-x---x-x-x--x-x-x---------|
G|--7-7-7---5-5-5---3-3-3--5-5-5(pause)--|
D|--7-7-7---5-5-5---3-3-3--5-5-5(pause)--|
A|--5-5-5---3-3-3---1-1-1--3-3-3(pause)--|
E|--x-x-x---x-x-x---x-x-x--x-x-x---------|

Chorus:
e|--x--x--x----x-x-x---x-x-x-x-x-x--|
B|--x--x--x----x-x-x---x-x-x-x-x-x--|
G|--10-10-10---5-5-5---3-3-3s5-3s5--|
D|--10-10-10---5-5-5---3-3-3s5-3s5--|
A|--8--8--8----3-3-3---1-1-1s3-1s3--|
E|--x--x--x----x-x-x---x-x-x-x-x-x--|

e|--x--x--x----x-x-x---x-x-x---x-x-x--|
B|--x--x--x----x-x-x---x-x-x---x-x-x--|
G|--10-10-10---5-5-5---3-3-3---5-5-5--|
D|--10-10-10---5-5-5---3-3-3---5-5-5--|
A|--8--8--8----3-3-3---1-1-1---3-3-3--|
E|--x--x--x----x-x-x---x-x-x---x-x-x--|

e|--x--x--x----x-x-x---x-x-x---x-x-|
B|--x--x--x----x-x-x---x-x-x---x-x-|
G|--10-10-10---5-5-5---7-7-7---8-8-|
D|--10-10-10---5-5-5---7-7-7---8-8-|
A|--8--8--8----3-3-3---5-5-5---6-6-|
E|--x--x--x----x-x-x---x-x-x---x-x-|

[Repeat Intro]
[Repeat Verse]
[Repeat Refrain]
[Repeat Chorus]

Bridge:
e|-----------------------|
B|-----------------------|
G|--3-3-3---------5-5-5--|2x
D|--3-3-3--7-7-7--5-5-5--|
A|--1-1-1--7-7-7--3-3-3--|
E|---------5-5-5---------|
 (kahit pa ikaw.....)

e|-----------------------|
B|-----------------------|
G|--5-5-5-5-5--7-7--8-8--|2x
D|--5-5-5-5-5--7-7--8-8--|
A|--3-3-3-3-3--5-5--6-6--|
E|-----------------------|
 (solo part)

e|-----------------------|
B|-----------------------|
G|---------3-3-3--5-5-5--|2x
D|--7-7-7--3-3-3--5-5-5--|
A|--7-7-7--1-1-1--3-3-3--|
E|--5-5-5----------------|
 (di ko man hawak...)

e|-----------------------|
B|-----------------------|
G|---------3-3-3--5-5-5--|
D|--7-7-7--3-3-3--5-5-5--|
A|--7-7-7--1-1-1--3-3-3--|
E|--5-5-5----------------|
 (bastat ikaw...)     

e|-------------------------------|
B|-------------------------------|
G|---------3-3-3--5-5-5--7--8-8--|
D|--7-7-7--3-3-3--5-5-5--7--8-8--|
A|--7-7-7--1-1-1--3-3-5--5--6-6--|
E|--5-5-5------------------------|
           (pariiiiiiiinnnnn....)

[Repeat Chorus]

e|-----------------------|
B|-----------------------|
G|--3-3-3---------5-5-5--|
D|--3-3-3--7-7-7--5-5-5--|
A|--1-1-1--7-7-7--3-3-3--|
E|---------5-5-5---------|
 (kahit pa ikaw.....)

e|------------------------------|
B|------------------------------|
G|--3-3-3---------5-5-5--12/10--|
D|--3-3-3--7-7-7--5-5-5--12/10--|
A|--1-1-1--7-7-7--3-3-3--10/8---|
E|---------5-5-5----------------|

e|------------------------------|
B|------------------------------|
G|--3-3-3----------------5-5-5--|
D|--3-3-3--7-7-7--5-5-5--5-5-5--|
A|--1-1-1--7-7-7--5-5-5--3-3-3--|
E|---------5-5-5--3-3-3---------|

e|--x-------------|
B|--10(let ring)--|
G|--10(let ring)--|
D|--8-------------|
A|--x-------------|
E|--x-------------|


| /  slide up
| \  slide down
| h  hammer-on
| p  pull-off
| ~  vibrato
| +  harmonic
| x  Mute note
=============================================================================

[End]
									


911Tabs.com - tabs search engine
More "Kahit Pa" tabs @ 911Tabs

A Guide to Tab NotationGuitar TabsGuitar ResourcesGuitar TabsPrivacy PolicyGuitar TabsContact

Online Guitar Lessons

Hale Guitar Tabs - Over 200,000 chords, guitar and bass tabs with video. Find tabs, video guitar lessons and more.