Music Guitar Tab, Tabs with MP3, ringtones, ringtone, concert tickets, guitar lessons, guitar tabs easy, guitar hero

Guitar Tabs Guitar Chords Bass Tabs
 Web Guitar Tabs
Guitar Lessons
 
Lyrics abcdefghijklmnopqrstuvwxyz # Top 100 Lyrics

Guitar Tabs
Guitar Tab






click on, click off


Tab for "All You Need Is Love" - Beatles Rating 4Print Guitar Tabs
select alternative YouTube videos below...
Tweak the search term to refine the YouTube video results:         
Share on Facebook

Learn to play this song and others via online guitar lessons @ JamPlay.com!

  ----------------------------------------------------------------

  THE BEATLES - ALL YOU NEED IS LOVE  (Lennon/McCartney)  Released
                as a single with BABY YOU'RE A RICH MAN as B side
                on 7th July 1967.

  ----------------------------------------------------------------

  Bass tab by:PJVillanueva

  Love, Love, Love.
  Love, Love, Love.
  Love, Love, Love.

  There's nothing you can do that can't be done.
  Nothing you can sing that can't be sung.
  Nothing you can say but you can learn how to play the game.
  It's easy.

  Nothing you can make that can't be made.
  No one you can save that can't be saved.
  Nothing you can do but you can learn how to be you in time.
  It's easy.

  All you need is love.
  All you need is love.
  All you need is love, love.
  Love is all you need.

  GUITAR SOLO

  All you need is love.
  All you need is love.
  All you need is love, love.
  Love is all you need.

  Nothing you can know that isn't known.
  Nothing you can see that isn't shown.
  Nowhere you can be that isn't where you're meant to be.
  It's easy.

  All you need is love.
  All you need is love.
  All you need is love, love.
  Love is all you need.

  All you need is love (All together, now!)
  All you need is love. (Everybody!)
  All you need is love, love.
  Love is all you need (love is all you need) ...

  Yee-hai!
  Oh yeah!
  She loves you, yeah yeah yeah.
  She'd love to, yeah yeah yeah.

    4/4                             3/4
    INTRO
                                                    00:25

  G|------- ------- ------- -------|------- ------- -------|
  D|-------------------------------|-----------------------|
  A|-------------------------------|----------------5------|
  E|-------------------------------|-----------------------|


    VERSE
    00:26

  G|------- ------- ------- -------|------- ------- -------|
  D|5---------------4--------------|-----------------------|
  A|-------------------------------|7---------------5---7--|
  E|-------------------------------|-----------------------|
         There's    can     can't
            nothing    do      be
   (Love)        you     that    done


  G|------- ------- ------- -------|------- ------- -------|
  D|5---------------4--------------|-----------------------|
  A|-------------------------------|7---------------5---7--|
  E|-------------------------------|-----------------------|
            Nothing         can't  sung
   (Love)       you can  that    be
                      sing

    4/4

  G|------- ------- ------- -------|------- ------- ------- -------|
  D|7---------------5--------------|4------------------------------|
  A|-------------------------------|------------7-\-5---3-\-2---3--|
  E|-------------------------------|-------------------------------|
            Nothing    say  you      how to play game.           It's
   (Love)       you can       can              the
                         but     learn

                                    3/4

  G|------- ------- ------- -------|------- ------- -------|
  D|-------------------------------|-----------------------|
  A|5---x---5-------3---x---3-\----|2---3---3/5-----5---7--|
  E|-------------------------------|-----------------------|
    easy.

    4/4                             3/4
    VERSE
    00:44

  G|------- ------- ------- -------|------- ------- -------|
  D|5---------------4--------------|-----------------------|
  A|-------------------------------|7---------------5---7--|
  E|-------------------------------|-----------------------|
            Nothing can    that  be
   (Love)       you     make  can't
                                   made.


  G|------- ------- ------- -------|------- ------- -------|
  D|5---------------4--------------|-----------------------|
  A|-------------------------------|7---------------5---7--|
  E|-------------------------------|-----------------------|
            No   you          that     be saved.
   (Love)      one  can save     can't

    4/4

  G|------- ------- ------- -------|------- ------- ------- -------|
  D|7---------------5--------------|4------------------------------|
  A|-------------------------------|------------7-\-5---3-\-2---3--|
  E|-------------------------------|-------------------------------|
            Nothing         you  learn   to      in              It's
   (Love)        you  do but  can     how   be you  time.
                    can
                                    3/4

  G|------- ------- ------- -------|------- ------- -------|
  D|-------------------------------|-----------------------|
  A|5---x---5-------3---x---3------|2-----/-5-------5---7--|
  E|-------------------------------|-----------------------|
    easy.

    4/4
    CHORUS
    01:01

  G|------- ------- ------- -------|------- ------- ------- -------|
  D|5---------------7--------------|------------------------5/7-5--|
  A|-------------------------------|5-----------x---5---7----------|
  E|-------------------------------|-------------------------------|
           All  you need is      love

  G|------- ------- ------- -------|------- 7-\---- ------- -------|
  D|----------------7--------------|------------------------5/7-5--|
  A|-------------------------------|5---------------5---7----------|
  E|-------------------------------|-------------------------------|
           All  you need is      love

  G|------- ------- ------- -------|------- 9-\---- ------- 7-\----|
  D|--------5-----7/9---9---9---9--|------------x---------------x--|
  A|-------------------------------|7---------------5--------------|
  E|-------------------------------|-------------------------------|
           All  you need is      love,           love

                                    2/4

  G|------- ------- ------- -------|------- -------|
  D|-------------------------------|5--------------|
  A|3-------3-------5-------5---x--|--------5---7--|
  E|-------------------------------|---------------|
            Love all  you
               is        need

    GUITAR SOLO
    4/4                             3/4
    01:18

  G|------- ------- ------- -------|------- ------- -------|
  D|5-------5---x---4-------4---x--|-----------------------|
  A|-------------------------------|7-------7-\-----5---7--|
  E|-------------------------------|-----------------------|


  G|------- ------- ------- -------|------- ------- -------|
  D|5-------5-------4-------4------|-----------------------|
  A|-------------------------------|7-------7-\-x---5---7--|
  E|-------------------------------|-----------------------|


    4/4

  G|------- ------- ------- -------|------- ------- ------- -------|
  D|7-------7-------5-------5---x--|4------------------------------|
  A|-------------------------------|--------7-------5\--3---2---3--|
  E|-------------------------------|-------------------------------|


                                    3/4

  G|------- ------- ------- -------|------- ------- -------|
  D|-------------------------------|-----------------------|
  A3/5--5---5-\-x---3---x---3------|2-----2/5-------5---7--|
  E|-------------------------------|-----------------------|


    CHORUS
    01:35

  G|------- ------- ------- -------|------- 7-\---- ------- -------|
  D|5---------------7-----------7--|------------x-----------5/7-5--|
  A|-------------------------------|5---------------5---7----------|
  E|-------------------------------|-------------------------------|
           All  you need is      love


  G|------- ------- ------- -------|------- 7---7-- ------- -------|
  D|----------------7-----------7--|------------------------5/7-5--|
  A|-------------------------------|5---------------5---7----------|
  E|-------------------------------|-------------------------------|
           All  you need is      love

  G|------- ------- ------- -------|------- ------- ------- -------|
  D|--------5-----7/9---9---9---9--|-------------------------------|
  A|-------------------------------|7---x---7-\-----5---x---5-\-x--|
  E|-------------------------------|-------------------------------|
           All  you need is      love,           love


  G|------- ------- ------- -------|------- -------|
  D|-------------------------------|5--------------|
  A|3-------3-------5-------5---5--|--------5---7--|
  E|-------------------------------|---------------|
            Love all  you
               is        need

    VERSE
    01:53

  G|------- ------- ------- -------|------- ------- -------|
  D|5---------------4--------------|-----------------------|
  A|-------------------------------|7---------------5---7--|
  E|-------------------------------|-----------------------|
            Nothing can    that   known.
    (Love)       you   know   isn't

  G|------- ------- ------- -------|------- ------- -------|
  D|5---------------4--------------|-----------------------|
  A|-------------------------------|7---------------5---7--|
  E|-------------------------------|-----------------------|
            Nothing can    that   shown.
    (Love)       you   see    isn't

  G|------- ------- ------- -------|------- ------- ------- -------|
  D|7---------------5--------------|4------------------------------|
  A|-------------------------------|------------7-\-5---3-\-2---3--|
  E|-------------------------------|-------------------------------|
            Nowhere can  that  where meant be                    It's
    (Love)       you   be   isn't you're to


  G|------- ------- ------- -------|------- ------- -------|
  D|-------------------------------|-----------------------|
  A|5---x---5-------3---x---3---x--|2---3---5---x---5---7--|
  E|-------------------------------|-----------------------|
    easy.


    CHORUS
    02:09

  G|------- ------- ------- -------|------- 7-\---- ------- -------|
  D|5---------------7--------------|------------------------5/7-5--|
  A|-------------------------------|5---------------5---7----------|
  E|-------------------------------|-------------------------------|
           All  you need is      love


  G|------- ------- ------- -------|------- 7------ ------- -------|
  D|--------5-------7-------7---x--|------------------------5/7-5--|
  A|-------------------------------|5---------------5---7----------|
  E|-------------------------------|-------------------------------|
           All  you need is      love

  G|------- ------- ------- -------|------- 7------ ------- -------|
  D|--------5-----7/9---9---9---9--|---/9-------9---7--------------|
  A|-------------------------------|7-------------------7-\-----2--|
  E|-------------------------------|-------------------------------|
           All  you need is      love,           love


  G|------- ------- ------- -------|------- -------|
  D|-------------------------------|5--------------|
  A|3-------3---x---5-------5---x--|--------5---7--|
  E|-------------------------------|---------------|
            Love all  you
               is        need


    CHORUS
    02:26

  G|------- ------- ------- -------|------- ------- 7------ -------|
  D|5-------5-------7-------7---x--|-------------------------------|
  A|-------------------------------|5-------5---------------5------|
  E|-------------------------------|-------------------------------|
           All  you need is      love
                                           (All  together   now!)

  G|------- ------- ------- -------|------- ------- 7------ -------|
  D|5-------5-------7---x---7------|-------------------------------|
  A|-------------------------------|5-------5---------------5------|
  E|-------------------------------|-------------------------------|
           All  you need is      love
                                           (Everybody!)


  G|------- ------- ------- -------|------- ------- ------- -------|
  D|5-------5-------9-------9------|-------------------------------|
  A|-------------------------------|7-------7---x---5-------5---x--|
  E|-------------------------------|-------------------------------|
           All  you need is      love,           love


  G|------- ------- ------- -------|------- -------|
  D|-------------------------------|5--------------|
  A|3-------3-------5-------5------|--------5---7--|
  E|-------------------------------|---------------|
            Love all  you                     Love
               is        need                   is
                                                 all
    CODA
    4/4
    02:43

  G|------- ------- ------- -------|------- ------- ------- -------|
  D|5-------5---0------------------|5-------5---0------------------|
  A|----------------5-------5---7--|----------------5-------5---7--|
  E|-------------------------------|-------------------------------|
      you                   Love      you                   Love all
         need                 is all     need                 is
           (Love all  you                  (Love all  you
                is      need)                   is      need)

  G|------- ------- ------- -------|------- ------- ------- -------|
  D|5-------5---0------------------|5-------5---0------------------|
  A|----------------5-------5---7--|----------------5-------5---7--|
  E|-------------------------------|-------------------------------|  ....
      you                   Love      you                   Love all
         need                 is all     need                 is
           (Love all  you                  (Love all  you
                is      need)                   is      need)




        B  Bend
        R  Release
        /  Slide up
        \  Slide down
        H  Hammer-on
        P  Pull-off
        ~  Vibrato
        +  Harmonic
        x  Mute note
        .  Play note like a dot in standard notation
        ^  Ties two notes together
        (. Pause
									


911Tabs.com - tabs search engine
More "All You Need Is Love" tabs @ 911Tabs

A Guide to Tab NotationGuitar TabsGuitar ResourcesGuitar TabsPrivacy PolicyGuitar TabsContact

Online Guitar Lessons

Beatles Guitar Tabs - Over 200,000 chords, guitar and bass tabs with video. Find tabs, video guitar lessons and more.