Music Guitar Tab, Tabs with MP3, ringtones, ringtone, concert tickets, guitar lessons, guitar tabs easy, guitar hero

Guitar Tabs Guitar Chords Bass Tabs
 Web Guitar Tabs
Guitar Lessons
 
Lyrics abcdefghijklmnopqrstuvwxyz # Top 100 Lyrics

Guitar Tabs
Guitar Tab






click on, click off


Tab for "Warmness On The Soul Solo" - Avenged Sevenfold Rating 4Print Guitar Tabs
select alternative YouTube videos below...
Tweak the search term to refine the YouTube video results:         
Share on Facebook

Learn to play this song and others via online guitar lessons @ JamPlay.com!

\ <- Slide Down
/ <- Slide Up
H <- Hammer On
P <- Pull Off
~ <- Vibrato

Tuning (low to high): E A D G B E

When I was learning this song I realized that in all the tabs for this solo, little
were missing which made this solo very hard to learn and made it not sound right, so I
throughout all the tabs for this song/solo and found all the mistakes and made sure all 
parts were here and now I'm tabbing out this solo which is 100% perfect in my opinion.
Tell me what you think, vote, comment, etc.

I'm tabbing this out in parts because it's easier to learn, I'll have it all in one tab
the end.

Part 1 (1:53):

e|---------------------------------------------------------------------------|
B|---------------------------------------------------------------------------|
G|---------------------------------------------------------------------------|
D|------5-7-5~-7-5-3\4-------------------------------------------------------|
A|-2\5-7----------------7-55~-2-2\7~-----------------------------------------|
E|---------------------------------------------------------------------------|

Part 2 (1:59):

e|---------------------------------------------------------------------------|
B|---------------------------------------------------------------------------|
G|-------9-7-4-4\5~-7\9-9/7~-4~-4H5P4-2~-------------------------------------|
D|----7H9--------------------------------------------------------------------|
A|-7H9-----------------------------------------------------------------------|
E|---------------------------------------------------------------------------|

Part 3 (2:07):

e|---------------------------------------------------------------------------|
B|---------------------------------------------------------------------------|
G|-5\7-9\12-7-5\7-5~-7\9-9/7~-7-7/2------------------------------------------|
D|----7----------------------------------------------------------------------|
A|---------------------------------------------------------------------------|
E|---------------------------------------------------------------------------|

Part 4 (2:13):

e|---------------------------------------------------------------------------|
B|---------------------------------------------------------------------------|
G|-12-11--12-11--12\14-12-11-12-11---------11-12-11~-------------------------|
D|------12-----12-----------------12\14~-14----------------------------------|
A|---------------------------------------------------------------------------|
E|---------------------------------------------------------------------------|

All Parts Together (1:53-2:22):

e|---------------------------------------------------------------------------|
B|---------------------------------------------------------------------------|
G|-----------------------------------------9-7-4-4\5~-7\9-9/7~-4~-4H5P4-2~---|
D|------5-7-5~-7-5-3\4------------------7H9----------------------------------|
A|-2\5-7----------------7-55~-2-2\7~-7H9-------------------------------------|
E|---------------------------------------------------------------------------|

e|---------------------------------------------------------------------------|
B|---------------------------------------------------------------------------|
G|-5\7-7\12-7-5\7-5~-7\9-9/7-7-7/2-------------------------------------------|
D|----7----------------------------------------------------------------------|
A|---------------------------------------------------------------------------|
E|---------------------------------------------------------------------------|

e|---------------------------------------------------------------------------|
B|---------------------------------------------------------------------------|
G|-12-11--12-11--12\14-12-11-12-11---------11-12-11~-------------------------|
D|------12-----12-----------------12\14~-14----------------------------------|
A|---------------------------------------------------------------------------|
E|---------------------------------------------------------------------------|
									


911Tabs.com - tabs search engine
More "Warmness On The Soul Solo" tabs @ 911Tabs

A Guide to Tab NotationGuitar TabsGuitar ResourcesGuitar TabsPrivacy PolicyGuitar TabsContact

Online Guitar Lessons

Avenged Sevenfold Guitar Tabs - Over 200,000 chords, guitar and bass tabs with video. Find tabs, video guitar lessons and more.