Music Guitar Tab, Tabs with MP3, ringtones, ringtone, concert tickets, guitar lessons, guitar tabs easy, guitar hero

Guitar Tabs Guitar Chords Bass Tabs
 Web Guitar Tabs
Guitar Lessons
 
Lyrics abcdefghijklmnopqrstuvwxyz # Top 100 Lyrics

Guitar Tabs
Guitar Tab






click on, click off


Tab for "Warmness On The Soul Solo" - Avenged Sevenfold Rating 4Print Guitar Tabs
select alternative YouTube videos below...
Tweak the search term to refine the YouTube video results:         
Share on Facebook

Learn to play this song and others via online guitar lessons @ JamPlay.com!

Band: Avenged SevenFold
Song: Warmness on the soul

Solo
E |----------------------------------------|
B |----------------------------------------|
G |----------------------------------------|
D |----------5-7-5~-7--/4-2-0~-------------|
A |-----/5-7-------------------5-5/7-------|
E |----------------------------------------|

E |----------------------------------------|
B |----------------------------------------|
G |--------4/9--7--4-4h5-7-9-7-4-4h5-2-----|
D |--4-5-7---------------------------------|
A |----------------------------------------|
E |----------------------------------------|
            
E |------/5--------------------------------|
B |-/3--------3-1-3-5-5H3-3-0--------------|
G |----2----2------------------------------|
D |----------------------------------------|
A |----------------------------------------|
E |----------------------------------------|

E |----------------------------------------|
B |---/8-7--8-7---8/10-8-7-8-3-3H5-7-8-7/--|
G |-------7----7---------------------------|
D |----------------------------------------|
A |----------------------------------------|
E |----------------------------------------|

h hammer
/ slide 

im 99.9 sure its the right tab,licten for timing


magnificent_adroitness@hotmail.com  

									


911Tabs.com - tabs search engine
More "Warmness On The Soul Solo" tabs @ 911Tabs

A Guide to Tab NotationGuitar TabsGuitar ResourcesGuitar TabsPrivacy PolicyGuitar TabsContact

Online Guitar Lessons

Avenged Sevenfold Guitar Tabs - Over 200,000 chords, guitar and bass tabs with video. Find tabs, video guitar lessons and more.