Music Guitar Tab, Tabs with MP3, ringtones, ringtone, concert tickets, guitar lessons, guitar tabs easy, guitar hero

Guitar Tabs Guitar Chords Bass Tabs
 Web Guitar Tabs
Guitar Lessons
 
Lyrics abcdefghijklmnopqrstuvwxyz # Top 100 Lyrics

Guitar Tabs
Guitar Tab






click on, click off


Tab for "Warmness On The Soul" - Avenged Sevenfold Rating 4Print Guitar Tabs
select alternative YouTube videos below...
Tweak the search term to refine the YouTube video results:         
Share on Facebook

Learn to play this song and others via online guitar lessons @ JamPlay.com!

e|----------------------------------------------------------------|
B|----------------------------------------------------------------|
G|--------------------------------------------------7/9-7---------|
D|--------5h7-5v--5-7p5-----------------2v----5-7-9-------9-9/10v-|
A|--2/5-7---------------7/9-7-5-5-5--2-----/7---------------------|
E|----------------------------------------------------------------|

e|---------------------------------------------------------------|
B|------------------------------------------7/10-----------------|
G|-------------------------4h5p4------5/7------------------------|
D|-/10-/12-12/14-14-12-9~--------7v-------7------7--10/12-10v----|
A|---------------------------------------------------------------|
E|---------------------------------------------------------------|

e|----------------------------------------------------------------|
B|----------------------------------------------------------------|
G|----------------------------9/12-11----12-11-12-12/14-12-11-12--|
D|---12-12/14-14p12-12v--12\3---------12--------------------------|
A|----------------------------------------------------------------|
E|----------------------------------------------------------------|

e|---------------------------------|
B|---------------------------------|
G|--11-----------------------------|
D|-----12-12/14v--16h17-16v---\3---|
A|---------------------------------|
E|---------------------------------|

Acoustic part:  
e|--0--0--2--2---|
B|--0--1--0--3---|
G|--0--0--0--2---|
D|--2--2--0--0---|  repeat these chords for a while...
A|--2--3--2------|
E|--0-----3------|

e|--0--2--0---|
B|--1--3--0---|
G|--0--2--0---|
D|--2--0--2---|
A|--3-----2---|
E|--------0---|

          "nothing--can-compare-world-you--woahh..." 
e|--0--2--2---------2------0----2-----0-------2x--------|
B|--1--3--0---------3------0----3-----1-------3x--------|
G|--0--2--0---------2------0----2-----0-------2x--------|
D|--2--0--0---------0------2----0-----2-------0x--------|
A|--3-----2----------------2----------3-----------------|
E|--------3----------------0----------------------------|

[piano solo]

e|--0--0--2--2---|
B|--0--1--0--3---|
G|--0--0--0--2---|
D|--2--2--0--0---| strum these chords behind the piano
A|--2--3--2------|
E|--0-----3------|

outro:
e|------------------------------------------------------------------|
B|------------------------------------------------------------------|
G|---5-5-5-5-5-5-5-5-5--7-7-7-7-7-7-7-7-7---------------------------|
D|---5-5-5-5-5-5-5-5-5--7-7-7-7-7-7-7-7-7--2-2-2-2-2-2-2-2-2-2-2-2--|
A|---3-3-3-3-3-3-3-3-3--5-5-5-5-5-5-5-5-5--2-2-2-2-2-2-2-2-2-2-2-2--|
E|-----------------------------------------0-0-0-0-0-0-0-0-0-0-0-0--|

e|------------------------------------------|
B|------------------------------------------|
G|---5-5-5-5-5-5-5-5-5--7-7-7-7-7-7-7-7-7---|
D|---5-5-5-5-5-5-5-5-5--7-7-7-7-7-7-7-7-7---|
A|---3-3-3-3-3-3-3-3-3--5-5-5-5-5-5-5-5-5---|
E|------------------------------------------|

      "nothing--can-compare-world-you--woahh..."(figure out strumming)
e|------------------------------------------------|
B|------------------------------------------------|
G|--------------7-----------7-----5------7x-------|
D|-----5--------7------2----7-----5------7x-------|
A|-----5--------5------2----5-----3------5x-------|
E|-----3---------------0--------------------------|
									


911Tabs.com - tabs search engine
More "Warmness On The Soul" tabs @ 911Tabs

A Guide to Tab NotationGuitar TabsGuitar ResourcesGuitar TabsPrivacy PolicyGuitar TabsContact

Online Guitar Lessons

Avenged Sevenfold Guitar Tabs - Over 200,000 chords, guitar and bass tabs with video. Find tabs, video guitar lessons and more.