Music Guitar Tab, Tabs with MP3, ringtones, ringtone, concert tickets, guitar lessons, guitar tabs easy, guitar hero

Guitar Tabs Guitar Chords Bass Tabs
 Web Guitar Tabs
Guitar Lessons
 
Lyrics abcdefghijklmnopqrstuvwxyz # Top 100 Lyrics

Guitar Tabs
Guitar Tab






click on, click off


Tab for "Walk" - Avenged Sevenfold Rating 4Print Guitar Tabs
select alternative YouTube videos below...
Tweak the search term to refine the YouTube video results:         
Share on Facebook

Learn to play this song and others via online guitar lessons @ JamPlay.com!

this is a good tab, hope you like it. =)

after sysnester plays the intro 4 time, play this.

G|-----------------------|
D|-----------------------|
A|-----------------------|
E|00000000000000000050305|
 then head right in to this.
       Main Rift
G|------------|
D|------------|
A|----1-0-----|
E|0-0-----3--0|X8

G|----------------------------------------------------------|
D|----------------------------------------------------------|
A|----1-0-------------1-0------------1-0--------------------|
E|0-0-----3--0-7--0-0-----3-0-6--0-0-----3-0-7--000305000503|X2
Right after that you play
E|000305000503|
Then shadows sings.
  Verse
G|---------|
D|---------|
A|----1-0--|
E|0-0-----3|X7
 then right after that 7th time, play

E|333|

then play

 verse

G|-----------|
D|-----------|
A|----1-0----|
E|0-0-----3--|X7

then play

E|3~~~~~~~~~~~~~5~~~~~~~6~~~~~~~|

G|-----------|
D|-----------|
A|----1-0----|
E|0-0-----3--|X4
 then
E|3~~~~~~~~~~~~~~5~~~~~~~6~~~~~~~|

G|-----------|
D|-----------|
A|----1-0----|
E|0-0-----3--|X4

E|3~~~~~~~~~~~~~~5~~~~~~~~~~~~~~2~~~~~~1~~~~0~~|

G|--------------------------------------------------------|
D|--------------------------------------------------------|
A|----1-0------------1-0------------1-0-------------------|
E|0-0-----3-0-7--0-0-----3-0-6--0-0-----3-0-7-000305000503|X2
then

E|000305000503|

G|-----------|
D|-----------|
A|----1-0----|
E|0-0-----3--|X7

then

E|555555|

G|-----------|
D|-----------|
A|----1-0----|
E|0-0-----3--|X14

E|3~~~~~~~~~~~~~5~~~~~~~6~~~~~~~|

G|-----------|
D|-----------|
A|----1-0----|
E|0-0-----3--|X4

E|3~~~~~~~~~~~~~5~~~~~~~6~~~~~~~|

G|-----------|
D|-----------|
A|----1-0----|
E|0-0-----3--|X4

E|3~~~~~~~~~~~~~~5~~~~~~~~~~~~~~2~~~~~~1~~~~0~~|

G|--------------------------------------------------------|
D|--------------------------------------------------------|
A|----1-0------------1-0------------1-0-------------------|
E|0-0-----3-0-7--0-0-----3-0-6--0-0-----3-0-7-000305000503|X4

E|000305000503|X2
 Solo

G|-----------|
D|-----------|
A|----1-0----|
E|0-0-----3--|X???
 Iím sorry I couldnít find out how many times he dose it but i think you just keep
this until he is done with his solo. ~.~ (sorry)
 but I know for sure that when he is done you play
E|2222220~~~~~~~~~~~~~~~|
and then you wait........................
then play

G|--------------------------------------------------------|
D|--------------------------------------------------------|
A|----1-0------------1-0------------1-0-------------------|
E|0-0-----3-0-7--0-0-----3-0-6--0-0-----3-0-7-000305000503|X4

then

E|000305000503|
then you play (flippen fast)

E|000305000503|X33

and if you master this you will, well youíll know how to play it at least, I have no
clue what you could do with it but it's a good tab.
									


911Tabs.com - tabs search engine
More "Walk" tabs @ 911Tabs

A Guide to Tab NotationGuitar TabsGuitar ResourcesGuitar TabsPrivacy PolicyGuitar TabsContact

Online Guitar Lessons

Avenged Sevenfold Guitar Tabs - Over 200,000 chords, guitar and bass tabs with video. Find tabs, video guitar lessons and more.