Music Guitar Tab, Tabs with MP3, ringtones, ringtone, concert tickets, guitar lessons, guitar tabs easy, guitar hero

Guitar Tabs Guitar Chords Bass Tabs
 Web Guitar Tabs
Guitar Lessons
 
Lyrics abcdefghijklmnopqrstuvwxyz # Top 100 Lyrics

Guitar Tabs
Guitar Tab






click on, click off


Tab for "Walk" - Avenged Sevenfold Rating 4Print Guitar Tabs
select alternative YouTube videos below...
Tweak the search term to refine the YouTube video results:         
Share on Facebook

Learn to play this song and others via online guitar lessons @ JamPlay.com!

Avenged Sevenfold "Walk" Pantera cover|this is 100% correct trust me.
|Tuning:Drop D|first the sound|treble is on 9|middle is on 4|bass is on 8|
the gain is on 10|the channel is on distortion (DUH!!)


Intro/verse|bend 1 to make it sound like 2
then make it sound like 1 again and hit 0
e|-------------------------------------------------|
B|-------------------------------------------------|
G|-------------------------------------------------|X3
D|-------------------------------------------------|
A|-------------------------------------------------|
D|-0----0--1^-(2)-(1)-0-----0--1^-(2)-(1)-0--------|

Intro (continued)
e|---------------------------------------|
B|---------------------------------------|
G|---------------------------------------|
D|---------------------------------------|
A|---------------------------------------|
D|-0--1^-(2)-(1)-0--/10\4/17\------------|

Chorus 1
e|---------------------------------------------------------------------|
B|---------------------------------------------------------------------|
G|---------------------------------------------------------------------|
D|-----------------------8-----------------------6--------------------6|
A|-----------------------8-----------------------6--------------------4|
D|-0--0--1^-(2)-(1)-0--0-8-0--0--1^-(2)-(1)-0--0-6-0--0-1-(2)-(1)-0-0-6|
PalmMute               -                       -                    -
Chorus 1 (continued)
e|-------------------------------------------------|
B|-------------------------------------------------|
G|-------------------------------------------------|
D|-------1---3---4---3---1-------1---3---4---3---1-|
A|-------1---3---4---3---1-------1---3---4---3---1-|
D|-0-0-0-1-0-3-0-4-0-3-0-1-0-0-0-1-0-3-0-4-0-3-0-1-|
PM - - -                   - - -

Verse
e|------------------------------------------|------------------------|----|
B|------------------------------------------|------------------------|----|
G|------------------------------------------|X3 but with this 2 times-----|
D|------------------------------------------|------------------------|6/4-|
A|------------------------------------------|------------------------|6/4-|
D|-0----0--1^-(2)-(1)-0-----0--1^-(2)-(1)-0-|--0-1^-(2)-(1)-0--------|6/4-|

ending of verse
e|-------|
B|-------|
G|-6-----|
D|-6-----|
A|-4-----|
D|-------|

Pre-chorus
e|------------------------------------------------------|
B|------------------------------------------------------|
G|-5----------------------------------------------------|
D|-5----6----7------------------------------------------|
A|-3----6----7------------------------------------------|
D|-5----6----7--0----0--1^-(2)-(1)-0----0--1^-(2)-(1)-0-|

e|----------------------------------------------------------|
B|----------------------------------------------------------|
G|----------------------------------------------------------|
D|-------------------------------------6----3----2----1-----|
A|-------------------------------------6----3----2----1-----|
D|-0--1^-(2)-(1)-0----0--1^-(2)-(1)-0--6----3----2----1-----|






Solo:it's so freaking hard to tab so don't bare with me...
it's 100%% correct and watch out for the whammy bar parts
e|---------------------------------------10-------------------10-----|
B|-13^-(15)-13^(15)-10--10-----------------13/10----------------13/10|
G|-12^-(14)-----------13--13-12-10-12-13--------13-12-10-12-13-------|
D|-------------------------------------------------------------------|
A|-------------------------------------------------------------------|
D|-------------------------------------------------------------------|

e|--------12^(13)---10--12-------10-14-------10-------10-14/10--10-14/10|
B|------------------------13^(15)-----13^(15)--13^(15)--------13--------|
G|13-12-10--------------------------------------------------------------|
D|----------------------------------------------------------------------|
A|----------------------------------------------------------------------|
D|----------------------------------------------------------------------|

e|-10-14-10--10------------------------------------------------------------|
B|---------13--13-10-13-10--10---------------------------------------------|
G|------------------------13--13-12-10--12--10/11---14-11-14-11-14-11------|
D|------------------------------------12--12-------------------------------|
A|-------------------------------------------------------------------------|
D|-------------------------------------------------------------------------|
                                                 W/bar---------------------|
____________________________________________________________________________
solo continued                                        w/bar----|
e|---------------------------------------------------------------|
B|------------------11--11----------11--11--11-------------------|
G|-10-11-10--10-11----11--11-10/11----11--11--11-10-11~----------|
D|---------12----------------------------------------------------|
A|---------------------------------------------------------------|
D|---------------------------------------------------------------|
____________________________________________________________________________
                                W/bar
                                ~~~~~~~~~~~~~~~~
e|--------------13-15-16-17^(20)------------------------|
B|--------x--15----------------------------------5--3/5-|
G|-(15)---x--------------------------------------5--3/5-|
D|--------x---------------------------------------------|
A|------------------------------------------------------|
D|------------------------------------------------------|
____________________________________________________________________________
                                            w/bar---|
e|---------6---7-6-3--------------------------------------------------|
B|-3-----------------5--(5)6-5-3--------------------------------------|
G|-3-----------------------------4^-(5)-(4)-(9)-(4)----5^(7)5^(7)(5)--|
D|---5-3-5-------------------------------------------x----------------|
A|---------------------------------------------------x----------------|
D|--------------------------------------------------------------------|

|------------/2------------------------------------------------------|
|--------------------------------------------------------------------|
|3-0/1/19-0/1--0/1/12-0-1/12--(15)(12)(15)(12)-x-----12-----12-----12|
|----------------------------------------------x-8/12--12/11--11/12--|
|----------------------------------------------x---------------------|
|--------------------------------------------------------------------|

|--------------------------|-----------|--------|
|--------------------------|-----------|--------|
|-----12------12--12--12^(14)----------|-\------|
|12/11--11/12---12--12-----|-----------|----12/-|
|--------------------------|-----------|--------|
|--------------------------|-----------|--------|
                           |~~~~~~~~~~~|
                           w/bar

e|---8------11-------14-------17-------20----20----20^(23)--(23^)-(23)----|
B|-7---7/10----10/13----13/16----16/19----19----20----------(20^)--20-----|
G|------------------------------------------------------------------------|
D|--------------------------------------------------------------------x/--|
A|--------------------------------------------------------------------x/--|
D|--------------------------------------------------------------------x/--|



Outro riff do this until fade out
e|----------------------------------------------|
B|----------------------------------------------|
G|----------------------------------------------|
D|-------2/1-0----------------------------------|
A|-------2/1-0----------------------------------|
D|-0-0-0-2/1-0----------------------------------|
PM - - -
									


911Tabs.com - tabs search engine
More "Walk" tabs @ 911Tabs

A Guide to Tab NotationGuitar TabsGuitar ResourcesGuitar TabsPrivacy PolicyGuitar TabsContact

Online Guitar Lessons

Avenged Sevenfold Guitar Tabs - Over 200,000 chords, guitar and bass tabs with video. Find tabs, video guitar lessons and more.