Music Guitar Tab, Tabs with MP3, ringtones, ringtone, concert tickets, guitar lessons, guitar tabs easy, guitar hero

Guitar Tabs Guitar Chords Bass Tabs
 Web Guitar Tabs
Guitar Lessons
 
Lyrics abcdefghijklmnopqrstuvwxyz # Top 100 Lyrics

Guitar Tabs
Guitar Tab






click on, click off


Tab for "Unholy Confessions" - Avenged Sevenfold Rating 4Print Guitar Tabs
select alternative YouTube videos below...
Tweak the search term to refine the YouTube video results:         
Share on Facebook

Learn to play this song and others via online guitar lessons @ JamPlay.com!

UNHOLY CONFESSIONS
AVENGED SEVENFOLD

Tabbed by Aaron Stinson
E-mail: stinson.4@hotmail.com

Intro I
|-------------------------------------------------|
|-------------------------------------------------|
|----------------------------------------1-1--0-0-|
|-0-0--WAIT FOR GUITAR--0-0----GUITAR-------------|

Intro II x3
|-----------------0---------------|
|-----0---2---3-------3---2-------|
|-----------------------------3---|
|-0-0---0---0---0---0---0---0---0-|

|-----0---------------------------|
|---------3---2-------2---3-------|
|-1---------------0-----------3---|
|---0---0---0---0---0---0---0---0-|

PRE-VERSE
|-----------------0-------------------------|
|-----0---2---3-------3---2-----------------|
|-----------------------------3----1-1--0-0-|
|-0-0---0---0---0---0---0---0---0-----------|

Verse I
|--------------------------------------------------------|x2
|---------------5-5-3-3-2-2-3--------------5-5-7-7-3-3-2-|
|-5--5-5----------------------1--1-1-1-x-3---------------|
|--------x-0-0-------------------------------------------|

|----------------------------------------------------------------|
|----------------------------------------------------------------|
|-7-7-7-7-7------------------------------------------------------|
|------------0-0-0-0-0--0-0-5-7-8-8-8-8-8--10-10-10-10-10--10-10-|

|--------------------------------------------------------|
|---------------5-5-3-3-2-2-3--------------5-5-7-7-3-3-2-|
|-5--5-5----------------------1--1-1-1-x-3---------------|
|--------x-0-0-------------------------------------------|

VERSE II x4
|----------------------------------------|
|----------------------------------------|
|----------------------------------------|
|-0-0----0-0-0-0-0------0-0----0-0-0-0-0-|

CHORUS x2
|-----------------------------------------------------------|
|----------------------3-2h3p2------------------------------|
|-5-x---------3--3-3-3---------5-3-----------3--3-3-3-3-3-3-|
|------0--2-3----------------------3-x-3-3-3----------------|

|--------------------------------------------------------|
|--------------------------------------------------------|
|-5-x---------3--3-3-3-3-3-3-3---------------------------|
|------0--2-3-------------------3-x-3---3-5-5-5-x--3--3--|

INTERLUDE x2
|------------------------------------------------|
|-3-2-3---------2-3-2----------------------------|
|--------5-4-5---------4-3-4--0-1-4-3-1-0--4-3-4-|
|------------------------------------------------|

RE-INTRO I
|-------------------------------------------------|
|-------------------------------------------------|
|----------------------------------------1-1--0-0-|
|-0~---WAIT FOR GUITAR--0-0----GUITAR-------------|

RE-INTRO II x4
|-----------------0---------------|
|-----0---2---3-------3---2-------|
|-----------------------------3---|
|-0-0---0---0---0---0---0---0---0-|

|-----0---------------------------|
|---------3---2-------2---3-------|
|-1---------------0-----------3---|
|---0---0---0---0---0---0---0---0-|

BRIDGE I x2
|-------------------------|
|-------------------------|
|-------------------------|
|-0-0-0-0-0-0-0-0-0-0-0-0-|

BRIDGE II x2
|----------------------------|
|----------------------------|
|----------------------------|
|-0-12-11-0-10-9-8-0-7-0-6-5-|

VERSE III x8
|----------------------------------------|
|----------------------------------------|
|----------------------------------------|
|-0-0----0-0-0-0-0------0-0----0-0-0-0-0-|

BRIDGE III
|-----------------------------|
|-----------------------------|
|-----------------------------|
|-0-5b--0-5b--0-5~--0-3-0-4-3-|

CHORUS II x2
|-----------------------------------------------------------|
|----------------------3-2h3p2------------------------------|
|-5-x---------3--3-3-3---------5-3-----------3--3-3-3-3-3-3-|
|------0--2-3----------------------3-x-3-3-3----------------|

|--------------------------------------------------------|
|--------------------------------------------------------|
|-5-x---------3--3-3-3-3-3-3-3---------------------------|
|------0--2-3-------------------3-x-3---3-5-5-5-x--3--3--|

OUTRO I x4
|----------------------------------------|
|----------------------------------------|
|----------------------------------------|
|-0-0----0-0-0-0-0------0-0----0-0-0-0-0-|

OUTRO II
|-----------|
|-----------|
|-----------|
|-0-0-------|



									


911Tabs.com - tabs search engine
More "Unholy Confessions" tabs @ 911Tabs

A Guide to Tab NotationGuitar TabsGuitar ResourcesGuitar TabsPrivacy PolicyGuitar TabsContact

Online Guitar Lessons

Avenged Sevenfold Guitar Tabs - Over 200,000 chords, guitar and bass tabs with video. Find tabs, video guitar lessons and more.