Music Guitar Tab, Tabs with MP3, ringtones, ringtone, concert tickets, guitar lessons, guitar tabs easy, guitar hero

Guitar Tabs Guitar Chords Bass Tabs
 Web Guitar Tabs
Guitar Lessons
 
Lyrics abcdefghijklmnopqrstuvwxyz # Top 100 Lyrics

Guitar Tabs
Guitar Tab






click on, click off


Tab for "Unholy Confessions" - Avenged Sevenfold Rating 4Print Guitar Tabs
select alternative YouTube videos below...
Tweak the search term to refine the YouTube video results:         
Share on Facebook

Learn to play this song and others via online guitar lessons @ JamPlay.com!

UNHOLY CONFESSIONS (Bassline)
As recorded by Avenged Sevenfold
(From the 2003 Album WAKING THE FALLEN)

Gtr I (D A D G) - 'Bass'

 Intro
  Moderately Fast Rock Q=95
 4/4
  Gtr I
|------------|---------|------------|---------------||
|------------|---------|------------|---------------||
|------------|---------|------------|---------------||
|-0-0--------|---------|-0-0--------|-8-8---7-7-----||


   Pre-Verse
||-----------------------------------|
||o----------------------------------|
||o-----5-0-7-0-8-0-10-0-8-0-7-0-8-0-|
||--0-0------------------------------|


  1.,2.,3.                          4.
                                 4x
|--------------------------------||---------------||
|-------------------------------o||---------------||
|-----10-0-8-0-7-----7-0-8-0----o||---------------||
|-8-8------------7-7---------10--||-8-8---7-7-----||


 Verse
|---------------------------|
|-------------7-7-5-5-2-2-3-|
|-5-5-5-5-5-----------------|
|-----------0---------------|


|---------------------------|---------------------------|
|-------------2-2-3-3-0-0---|-------------7-7-5-5-2-2-3-|
|-1-1-1-1-1-3-------------3-|-5-5-5-5-5-----------------|
|---------------------------|-----------0---------------|


|---------------------------|------------------------------|
|-------------2-2-3-3-0-0---|------------------------------|
|-1-1-1-1-1-3-------------3-|-5-5-5-5-5-----------------1--|
|---------------------------|-----------0-0-0-0-0-0-3-3----|


|---------------------------|---------------------------|
|---------------------------|-------------7-7-5-5-2-2-3-|
|-1-1-1-1-1-3-3-3-3-3-3-3-3-|-5-5-5-5-5-----------------|
|---------------------------|-----------0---------------|


|---------------------------||
|-------------2-2-3-3-0-0---||
|-1-1-1-1-1-3-------------3-||
|---------------------------||


   Pre-Chorus
                                             4x
||---------------------|---------------------||
||o--------------------|--------------------o||
||o--------------------|--------------------o||
||--0-0---0-0-0-0-0----|-0-0---0-0-0-0-0-----||


 Chorus
  $
|---------------|-----------------------|---------------|---------------------|
|---------------|-----------3-2h3p2-0---|---------------|---------------------|
|-5-5---------3-|-(3)-3-3-3-----------3-|-------------1-|-(1)-1-1-1-1-1-1-1---|
|------0--2-3---|-----------------------|-3-3--3--3-3---|---------------------|


|---------------|-------------------|---------------|--------------|
|---------------|-------------------|---------------|--------------|
|-5-5---------3-|-(3)-3-3-3-3-3-3-3-|---------------|--------------|
|------0--2-3---|-------------------|-3-3--3--3-3-3-|-5-5--3---3-3-|


|---------------|-----------------------|
|---------------|-----------3-2h3p2-0---|
|-5-5---------3-|-(3)-3-3-3-----------3-|
|------0--2-3---|-----------------------|


|---------------|--------------------------------|
|---------------|--------------------------------|
|-------------1-|-(1)-1-1-1-1S13-13-13-13-13-13--|
|-3-3--3--3-3---|--------------------------------|


                                           To Coda
|---------------|-------------------|---------------|----------------||
|---------------|-------------------|---------------|------------3-2-||
|-5-5---------3-|-(3)-3-3-3-3-3-3-3-|---------------|----------------||
|------0--2-3---|-------------------|-3-3--3--3-3-3-|-5-5--3---3-----||


 Bridge
|-----------------|---------------|-------------|------------------|
|-3-----------2-3-|-2-------------|-------------|-------------3-2--|
|-----5-4-5-------|-----4-3-4--0--|-1--4--3--1--|-0---4-3-4--------|
|-----------------|---------------|-------------|------------------|


|-----------------|---------------|-------------|--------------||
|-3-----------2-3-|-2-------------|-------------|--------------||
|-----5-4-5-------|-----4-3-4--0--|-1--4--3--1--|-0---4-3-4----||
|-----------------|---------------|-------------|--------------||


 Re-Intro
|----------|------------|------------|----------------||
|----------|------------|------------|----------------||
|----------|------------|------------|----------------||
|-0--------|-(0)--------|-0-0--------|-8-8---7-7------||


                                                                       4x
||-----------------------------------|---------------------------------||
||o----------------------------------|--------------------------------o||
||o-----5-0-7-0-8-0-10-0-8-0-7-0-8-0-|-----10-0-8-0-7-----7-0-8-0-----o||
||--0-0------------------------------|-8-8------------7-7---------10---||


 Breakdown
|-----------------|-----------------|-----------------|
|-----------------|-----------------|-----------------|
|-----------------|-----------------|-----------------|
|-0-0-0-0-0-0-0-0-|-0-0-0-0-0-0-0-0-|-0-0-0-0-0-0-0-0-|


|---------------------|--------------------|------------------|
|---------------------|--------------------|------------------|
|---------------------|--------------------|------------------|
|-0-/12-11-0-10-9-8-0-|-7-0-6-5-0-/12-11-0-|-10-9-8-0-7-0-6-5-|


   Pre-Chorus
   4/4
                                              4x
||---------------------|----------------------||
||o--------------------|---------------------o||
||o--------------------|---------------------o||
||--0-0---0-0-0-0-0----|-0-0---0-0-0-0-0------||


   Bridge
||---------------------|---------------------||
||o--------------------|--------------------o||
||o--------------------|--------------------o||
||--0-0---0-0-0-0-0----|-0-0---0-0-0-0-0-----||


                           D.S. al Coda
|-----------------------|-----------------||
|-----------------------|-----------------||
|-----------------------|-----------7--4--||
|-0-5b6--0-5b6--0-4b4.5r|=(4)-0-3-0-------||


  &
|---------------|--------||
|---------------|--------||
|---------------|--------||
|-5-5--3----(3)-|-(3)----||


   Outro
   4/4
                                                 4x
||-----------------------|-----------------------||----------*|
||o----------------------|----------------------o||----------*|
||o----------------------|----------------------o||----------*|
||--0-0---0-0-0-0-0------|-0-0---0-0-0-0-0-------||-0-0------*|



Tablature Legend
----------------
 h   - hammer-on
 p   - pull-off
 b   - bend
 pb  - pre-bend
 r   - bend release (if no number after the r, then release immediately)
 /\  - slide into or out of (from/to "nowhere")
 s   - legato slide
 S   - shift slide
<n> - natural harmonic
[n]  - artificial harmonic
n(n) - tapped harmonic
 ~   - vibrato
 tr  - trill
 T   - tap
 TP  - trem. picking
 PM  - palm muting
\n/  - tremolo bar dip; n = amount to dip
 \n  - tremolo bar down
 n/  - tremolo bar up
/n\  - tremolo bar inverted dip
 =   - hold bend; also acts as connecting device for hammers/pulls
 <> - volume swell (louder/softer)
 x   - on rhythm slash represents muted slash
 o   - on rhythm slash represents single note slash

Misc Legend
-----------
 |  - bar
||  - double bar
||o - repeat start
o|| - repeat end
*|  - double bar (ending)
 :  - bar (freetime)
 $  - Segno
 &  - Coda
Tempo markers - <E/E./Q/Q./H/H.> = BPM(8/16=s8/s16), where s8 = swing 8ths, s16 = swing 16ths
									


911Tabs.com - tabs search engine
More "Unholy Confessions" tabs @ 911Tabs

A Guide to Tab NotationGuitar TabsGuitar ResourcesGuitar TabsPrivacy PolicyGuitar TabsContact

Online Guitar Lessons

Avenged Sevenfold Guitar Tabs - Over 200,000 chords, guitar and bass tabs with video. Find tabs, video guitar lessons and more.