Music Guitar Tab, Tabs with MP3, ringtones, ringtone, concert tickets, guitar lessons, guitar tabs easy, guitar hero

Guitar Tabs Guitar Chords Bass Tabs
 Web Guitar Tabs
Guitar Lessons
 
Lyrics abcdefghijklmnopqrstuvwxyz # Top 100 Lyrics

Guitar Tabs
Guitar Tab






click on, click off


Tab for "Unholy Confessions" - Avenged Sevenfold Rating 4Print Guitar Tabs
select alternative YouTube videos below...
Tweak the search term to refine the YouTube video results:         
Share on Facebook

Learn to play this song and others via online guitar lessons @ JamPlay.com!

Song - Unholy Confessions
Band - Avenged Sevenfold
ALbum - Waking The Fallen
Tuning - <DADGBE>

Tapped by Eaiddhi<antipunkrocker@gmail.com>

<Only Guitars>
<Guitar 1# Left>
|-----------------------------------------------------------|
|-----------------------------------------------------------|
|-----------------------------------------------------------|
|-00-------------------88--------77-------------------------| 
|-00-5-7-8-10-8-7h8p---88-10-8-7-77-7-8---------------------|
|-00--0-0-0--0-0----10-88--------77-----10~-----------------|
  ..                   ..        ..
<Guitar 2# Right>
|-----------------------------------------------------------|
|-----------------------------------------------------------|
|-----------------------------------------------------------|
|-00--------------------------------------------------------|
|-00--------------------------------------------------------|
|-00--------------------------------------------------------|
  ..
<Guitar 1# Left>
|-----------------------------------------------------------|
|-----------------------------------------------------------|
|-----------------------------------------------------------|
|-00-------------------88--------77-------------------------| 
|-00-5-7-8-10-8-7h8p---88--------77-------------------------|
|-00--0-0-0--0-0----10-88--------77-------------------------|
  ..                   
<Guitar 2# Right>
|-----------------------------------------------------------|
|-----------------------------------------------------------|
|-----------------------------------------------------------|
|-00-------------------88--------77-------------------------|
|-00-------------------88--------77-------------------------|
|-00-------------------88--------77-------------------------|
  ..
<With Drums>
<Guitar 1# Left>
|-----------------------------------------------------------|
|-----------------------------------------------------------|
|-----------------------------------------------------------|
|-00-------------------88--------77-------------------------| x3
|-00-5-7-8-10-8-7h8p---88-10-8-7-77-7-8---------------------|
|-00--0-0-0--0-0----10-88--------77-----10~-----------------|
  ..                   ..        ..
<Guitar 2# Right>
|-----------------------------------------------------------|
|-----------------------------------------------------------|
|-----------------------------------------------------------|
|-00-3-5-7-8-7-5h7p5---88-8-7-5--77-5-7---------------------| x3
|-00-----------------7-88--------77-----7~------------------|
|-00-------------------88--------77-------------------------|
  ..                   ..        ..
<Guitar 1# Left>
|-----------------------------------------------------------|
|-----------------------------------------------------------|
|-----------------------------------------------------------|
|-00-------------------88--------77--12-12/14-14\10-10-9----| 
|-00-5-7-8-10-8-7h8p---88--------77-------------------------|
|-00--0-0-0--0-0----10-88--------77-------------------------|
  ..
<Guitar 2# Right>
|-----------------------------------------------------------|
|-----------------------------------------------------------|
|-----------------------------------------------------------|
|-00-3-5-7-8-7-5h7p5---88--------77-------------------------| 
|-00-----------------7-88--------77--7-7/8-8\5-5-4----------|
|-00-------------------88--------77-------------------------|
  ..
<Guitar 1# Left>
|-----------------------------------------------------------|
|---------13-13\11-11\10-8/10-------------------------------|
|-----------------------------------------------------------|
|-0--000----------------------8--88-10--12-12/14-14\10-10-9-| x2
|-0--000----------------------8--88-10----------------------|
|-0--000----------------------8--88-10----------------------|
     ..                          ..
<Guitar 2# Right>
|-----------------------------------------------------------|
|-----------------------------------------------------------|
|-----------------------------------------------------------|
|-0--000--7-7\5-5\3-2h3-------8--88-10----------------------| x2
|-0--000----------------------8--88-10--7-7/8-8\5-5-4-------|
|-0--000----------------------8--88-10----------------------|
     ..                          ..
<Both Guitars>
|-----------------------------------------------------------|
|-----------------------------------------------------------|
|-----------------------------------------------------------|
|-0000-7-0000-7-0230-8888-8-10101010-10--1010-10------------|
|-0000-5-0000-5-0230-8888-8-10101010-10--1010-10------------|
|-0000---0000---0230-8888-8-10101010-10--1010-10------------|
  ....   ....   .... ....    . . . .      . .
<Guitar 1# Left>
|-----------------------------------------------------------|
|---------13-13\11-11\10-8/10-------------------------------|
|-----------------------------------------------------------|
|-0--000----------------------8--88-10--12-12/14-14\10-10-9-| x2
|-0--000----------------------8--88-10----------------------|
|-0--000----------------------8--88-10----------------------|
     ..                          ..
<Guitar 2# Right>
|-----------------------------------------------------------|
|-----------------------------------------------------------|
|-----------------------------------------------------------|
|-0--000--7-7\5-5\3-2h3-------8--88-10----------------------| x2
|-0--000----------------------8--88-10--7-7/8-8\5-5-4-------|
|-0--000----------------------8--88-10----------------------|
     ..                          ..
<Both play>
|---------------------|
|---------------------|
|---------------------|
|-00--000000----------| x 4
|-00--000000----------|
|-00--000000<twist>---|
  ..  ......
<Guitar 1#>
|-----------------------------------------------------------|
|-----------------------------------------------------------|
|-----------------------------------------------------------|
|-00----------------00---------7p0-8p0-7p0-<6>--------------| x2
|-00-7-8--7-8--5-44-00-7p0-8p0------------------------------|
|-00-----0----0-----00--------------------------------------|
  ..                ..
<Guitar 2#>
|---------------------|
|---------------------|
|---------------------|
|-00--000000----------| x 4
|-00--000000----------|
|-00--000000<twist>---|
  ..  ......
<Both Play>
|---------------------------------------------------------------|
|---------------------------------------------------------------|
|----------5-----------------------------------5----------------|
|-0--0-----5---2-3-2h3p2p0---3--3--8--0--0-----5--3--3--5--3----|
|-0--0-----3---------------3-3--3--8--0--0-----3--3--3--5--5----|
|-0--0-2-3-------------------3--3--8--0--0-2-3----3--3--5--0----|

|---------------------------------------------------------------|
|---------------------------------------------------------------|
|----------5-----------------------------------5----------------|
|-0--0-----5--2-3-2h3p2p0----3--3--8--0--0-----5--3--3--5--3----|
|-0--0-----3--------------3--3--3--8--0--0-----3--3--3--5--5----|
|-0--0-2-3-------------------3--3--8--0--0-2-3----3--3--5--0----|
<Guitar 1# L>
|-----------------------------------------------------------|
|-----------------------------------------------------------|
|-/14-1214--/10-910--/12-1412-/9-89-6-7-10-9-7-6--/10-910---|
|-----------------------------------------------------------| x2
|-----------------------------------------------------------|
|-----------------------------------------------------------|
<Guitar 1# R>
|-----------------------------------------------------------|
|-----------------------------------------------------------|
|-----------------------------------------------------------|
|-----------------------------------------------------------| x2
|-/8-78-/5-45-/7-87-/4-34--0-1-4-3-1-0-/4-34----------------|
|-----------------------------------------------------------|
<Only Guitars>
<Guitar 1# Left>
|-----------------------------------------------------------|
|-----------------------------------------------------------|
|-----------------------------------------------------------|
|-00-------------------88--------77-------------------------| 
|-00-5-7-8-10-8-7h8p---88-10-8-7-77-7-8---------------------|
|-00--0-0-0--0-0----10-88--------77-----10~-----------------|
  ..                   ..        ..
<Guitar 2# Right>
|-----------------------------------------------------------|
|-----------------------------------------------------------|
|-----------------------------------------------------------|
|-0---------------------------------------------------------|
|-0---------------------------------------------------------|
|-0---------------------------------------------------------|
<Guitar 1# Left>
|-----------------------------------------------------------|
|-----------------------------------------------------------|
|-----------------------------------------------------------|
|-00-------------------88--------77-------------------------| 
|-00-5-7-8-10-8-7h8p---88--------77-------------------------|
|-00--0-0-0--0-0----10-88--------77-------------------------|
  ..                   
<Guitar 2# Right>
|-----------------------------------------------------------|
|-----------------------------------------------------------|
|-----------------------------------------------------------|
|-00-------------------88--------77-------------------------|
|-00-------------------88--------77-------------------------|
|-00-------------------88--------77-------------------------|
  ..
<With Drums>
<Guitar 1# Left>
|-----------------------------------------------------------|
|-----------------------------------------------------------|
|-----------------------------------------------------------|
|-00-------------------88--------77-------------------------| x4
|-00-5-7-8-10-8-7h8p---88-10-8-7-77-7-8---------------------|
|-00--0-0-0--0-0----10-88--------77-----10~-----------------|
  ..                   ..        ..
<Guitar 2# Right>
|-----------------------------------------------------------|
|-----------------------------------------------------------|
|-----------------------------------------------------------|
|-00-3-5-7-8-7-5h7p5---88-8-7-5--77-5-7---------------------| x4
|-00-----------------7-88--------77-----7~------------------|
|-00-------------------88--------77-------------------------|
  ..                   ..        ..
<Both Play>
|-----------|
|-----------|
|-----------|
|-0-0-0-0---| x6
|-0-0-0-0---|
|-0-0-0-0---|
  . . . .
<Both Play>
|-----------------------------------------------------------|
|-----------------------------------------------------------|
|-----------------------------------------------------------|
|-0-12-11-0-10-9-8-0-7-0-6-5-0-12-11-0-10-9-8-0-7-0-6-5-----|
|-0-12-11-0-10-9-8-0-7-0-6-5-0-12-11-0-10-9-8-0-7-0-6-5-----|
|-0-12-11-0-10-9-8-0-7-0-6-5-0-12-11-0-10-9-8-0-7-0-6-5-----|
<Both play>
|---------------------|
|---------------------|
|---------------------|
|-00--000000----------| x 4
|-00--000000----------|
|-00--000000<twist>---|
  ..  ......
<Guitar 1#>
|-----------------------------------------------------------|
|-----------------------------------------------------------|
|-----------------------------------------------------------|
|-00----------------00---------7p0-8p0-7p0-<6>--------------| x2
|-00-7-8--7-8--5-44-00-7p0-8p0------------------------------|
|-00-----0----0-----00--------------------------------------|
  ..                ..
<Guitar 2#>
|---------------------|
|---------------------|
|---------------------|
|-00--000000----------| x 4
|-00--000000----------|
|-00--000000<twist>---|
  ..  ......
<Both Play>
|----------------------------|
|----------------------------|
|----------------------------|
|----------------------------| x4
|----------------------------|
|-0-11^-0-10^-0-8^-06^05^----|
<Both Play>
|-------------------------------|
|-------------------------------|
|-------------------------------|
|------------------------5~-2~--|
|------------------------7~-4~--|
|-0-5^-0-5^-0-5^~-0-3^-0--------|
<Both Play>
|---------------------------------------------------------------|
|---------------------------------------------------------------|
|----------5-----------------------------------5----------------|
|-0--0-----5---2-3-2h3p2p0---3--3--8--0--0-----5--3--3--5--3----|
|-0--0-----3---------------3-3--3--8--0--0-----3--3--3--5--5----|
|-0--0-2-3-------------------3--3--8--0--0-2-3----3--3--5--0----|

|---------------------------------------------------------------|
|---------------------------------------------------------------|
|----------5-----------------------------------5----------------|
|-0--0-----5---2-3-2h3p2p0---3--3--8--0--0-----5--3--3--5--3----|
|-0--0-----3---------------3-3--3--8--0--0-----3--3--3--5--5----|
|-0--0-2-3-------------------3--3--8--0--0-2-3----3--3--5--0----|
<Both Play>
|----------------------------|
|----------------------------|
|----------------------------|
|----------------------------| x8
|----------------------------|
|-0-11^-0-10^-0-8^-06^05^----|

|----------------------------|
|----------------------------|
|----------------------------|
|-00-------------------------| 
|-00-------------------------|
|-00-------------------------| Fine.
  ..
									


911Tabs.com - tabs search engine
More "Unholy Confessions" tabs @ 911Tabs

A Guide to Tab NotationGuitar TabsGuitar ResourcesGuitar TabsPrivacy PolicyGuitar TabsContact

Online Guitar Lessons

Avenged Sevenfold Guitar Tabs - Over 200,000 chords, guitar and bass tabs with video. Find tabs, video guitar lessons and more.