Music Guitar Tab, Tabs with MP3, ringtones, ringtone, concert tickets, guitar lessons, guitar tabs easy, guitar hero

Guitar Tabs Guitar Chords Bass Tabs
 Web Guitar Tabs
Guitar Lessons
 
Lyrics abcdefghijklmnopqrstuvwxyz # Top 100 Lyrics

Guitar Tabs
Guitar Tab






click on, click off


Tab for "Unbound The Wild Ride Solo" - Avenged Sevenfold Rating 4Print Guitar Tabs
select alternative YouTube videos below...
Tweak the search term to refine the YouTube video results:         
Share on Facebook

Learn to play this song and others via online guitar lessons @ JamPlay.com!

Unbound (The Wild Ride) Solo
Avenged Sevenfold

Guitars Tuned To Dropped D (D A D G B E)

Past the sweeping part, the rest hasnt been tabbed before. So I'll try I guess.

Sweeping Part.
Rhythm Chords under the sweeping/pulloffs are:
D5 (000xxx), E6 (242xxx), G6 (575xxx), Dm5 (353xxx), A#5 (x133xx), A5/A#5 (x032xxx), 
(x476xxx) and D5 (x577xx). Repeat twice

--17p--13-----------------------------------13h--17--|
-----------15---------------------------15-----------|
---------------14-------------------14---------------|
-------------------15------12h--15-------------------|
-----------------------13----------------------------|
-----------------------------------------------------|


   |----3---|   |---3---|   |---3---|   |---3---|
   E    E   E   E   E   E   E   E   E   E   E   E
--18p--15--------------------------------------15h--|
-----------15------------------------------15-------|
---------------15----------------------15-----------|
-------------------17--------------17---------------|
-----------------------17------17-------------------|
---------------------------17-----------------------|


   |----3---|   |---3---|   |---3---|   |---3---|
   E    E   E   E   E   E   E   E   E   E   E   E
--18p--15--------------------------------------15h--|
-----------15------------------------------15-------|
---------------15----------------------15-----------|
-------------------17--------------17---------------|
-----------------------17------17-------------------|
---------------------------17-----------------------|


--17p--13-----------------------------||
-----------15-------------------------||
---------------14---------------------|| Repeat Once.
-------------------15-----------------||
-----------------------16--17~--------||
--------------------------------------||

The rhythm behind this part is quite simple:
A#5 (x133xx), D5 (000xxx), D5 (x577xx), E5 (222xxx), F5 (333xxx), A5 (x022xxx), A#5 
A5 (x022xx)

------------------------------------|---------------------|
------------------------------------|---------------------|
-7b(9)r(7)----<7>b(9)---------10----|--(10)~--------------|
------------------------------------|---------------------|
------------------------------------|---------------------|
------------------------------------|---------------------|

--------------------------------------------|
--------------------------------------------|
--7b(9)----5h7p5----7p5-----7p5-------------|
-----------------8------8~------8~--7h8-5~--|
--------------------------------------------|
--------------------------------------------|

-------------------------------------------|
-------------------------------------------|
-------------------------------------------|
-------5----7---/10----12~bSLOWLY(14)r(12)-|
--8----------------------------------------|
-------------------------------------------|


After this:
Guitar rhythm with clean tone, no Effects.

|-v13----13----------13----------12-------12------12h13-| Repeat and let ring.
|-v15--------15----------15---------15-------15---------|
|-v14------------14----------14--------14-------14------|
|-------------------------------------------------------|
|-------------------------------------------------------|
|-------------------------------------------------------|
Also played under the guitar Duet.

Guitar Duet:
w/Distortion:


|------------13h15p13----|------------12h13p12----|
|--15--------------------|--14--------------------|
|------------------------|------------------------|
|------------------------|------------------------|
|------------------------|------------------------|
|------------------------|------------------------|

------------10--12--10----|--------------12/15----|
--11----------------------|--13----15-------------|
--------------------------|-----------------------|
--------------------------|-----------------------|
--------------------------|-----------------------|
--------------------------|-----------------------|

------------13--15--13----|------------12--13--12----|
--15----------------------|--14----------------------|
--------------------------|--------------------------|
--------------------------|--------------------------|
--------------------------|--------------------------|
--------------------------|--------------------------|

------------10--12--10----|---------------------|
--11----------------------|--13~----------------|
--------------------------|---------------------|
--------------------------|---------------------|
--------------------------|---------------------|
--------------------------|---------------------|

----------13h--17p--15--------------|--------------13--15b(17)r-13p-12-|
------15----------------17----------|----------15----------------------|
--14------------------------17------|------14--------------------------|
--------------------------------17--|--15------------------------------|
------------------------------------|----------------------------------|
------------------------------------|----------------------------------|

--13~----------------|--12h--13p--12----15h--17p--15----|
---------------------|----------------------------------|
---------------------|----------------------------------|
---------------------|----------------------------------|
---------------------|----------------------------------|
---------------------|----------------------------------|

--------------------------|
--------------15----14----|
--12----14----------------|
--------------------------|  Repeat.
--------------------------|
--------------------------|

The harmony to this is:

|--------------------------|-----------------------|
|------------10--11--10----|-----------8--10--8----|
|--/7----------------------|--6--------------------|
|--------------------------|-----------------------|
|--------------------------|-----------------------|
|--------------------------|-----------------------|

-------------------------|-------------------------|--------------------------|
-------------------------|-------------------10----|------------10--11--10----|
-----------10--12--10----|--9----10----12----------|--/7----------------------|
--8----------------------|-------------------------|--------------------------|
-------------------------|-------------------------|--------------------------|
-------------------------|-------------------------|--------------------------|

-----------------------|-------------------------|--------------------|
-----------8--10--8----|-------------------------|--------------------|
--6--------------------|-----------10--12--10----|--9~----------------|
-----------------------|--8----------------------|--------------------|
-----------------------|-------------------------|--------------------|
-----------------------|-------------------------|--------------------|

--------------13p--12--------------|--------------10--12b(13)r-10p8h|
----------13-----------13----------|----------11--------------------|
------14-------------------12------|------10------------------------|
--15---------------------------14--|--12----------------------------|
-----------------------------------|--------------------------------|
-----------------------------------|--------------------------------|

--10~----------------|--9h--10p--9----12h--13p--12----|
---------------------|--------------------------------|
---------------------|--------------------------------|
---------------------|--------------------------------|
---------------------|--------------------------------|
---------------------|--------------------------------|

----------------------|
----------------------|
--9----10/15----14----| Repeat with part one.
----------------------|
----------------------|
----------------------|


well... that's it I guess
									


911Tabs.com - tabs search engine
More "Unbound The Wild Ride Solo" tabs @ 911Tabs

A Guide to Tab NotationGuitar TabsGuitar ResourcesGuitar TabsPrivacy PolicyGuitar TabsContact

Online Guitar Lessons

Avenged Sevenfold Guitar Tabs - Over 200,000 chords, guitar and bass tabs with video. Find tabs, video guitar lessons and more.