Music Guitar Tab, Tabs with MP3, ringtones, ringtone, concert tickets, guitar lessons, guitar tabs easy, guitar hero

Guitar Tabs Guitar Chords Bass Tabs
 Web Guitar Tabs
Guitar Lessons
 
Lyrics abcdefghijklmnopqrstuvwxyz # Top 100 Lyrics

Guitar Tabs
Guitar Tab






click on, click off


Tab for "Turn The Other Way" - Avenged Sevenfold Rating 4Print Guitar Tabs
select alternative YouTube videos below...
Tweak the search term to refine the YouTube video results:         
Share on Facebook

Learn to play this song and others via online guitar lessons @ JamPlay.com!

|---------------|-------------------5-|---------------------------|
|---------------|-----------------5---|---------------------------|
|---------------|---------------------|---------------------------| 
|-----1-3-2-----|---------------------|---------------------------|
|-0-3-------3-0-|-0-0-0--0--0-0-0-----|-0-0--0-0-0--0--0-0-0--0-1-|
|---------------|---------------------|---------------------------|

|------------------------5---|---------------------------|
|----------------------5---5-|---------------------------|
|----------------------------|---------------------------|
|----------------------------|---------------------------|
|-0-0--0-0-0--0--0-0-0-------|-0-0--0-0-0--0--0-0-0--0-1-|
|----------------------------|---------------------------|

|------------------------5-|---------------------------|
|----------------------5---|---------------------------|
|--------------------------|---------------------------|
|--------------------------|---------------------------|
|-0-0--0-0-0--0--0-0-0-----|-0-0--0-0-0--0--0-0-0--0-1-|
|--------------------------|---------------------------|

|------------------------5---|---------------------------|
|----------------------5---5-|---------------------------|
|----------------------------|---------------------------|
|----------------------------|---------------------------|
|-0-0--0-0-0--0--0-0-0-------|-0-0--0-0-0--0--0-0-0--0-1-|
|----------------------------|---------------------------|


|------------------------|----------------------------|
|------------------------|----------------------------|
|------------------------|----------------------------|
|------------------------|------------0-----0-3-2-----|
|-0-3-2------------------|-0-3-2--------3-3-------3-2-|
|-------3-1--0-1-0-1-3-3-|-------3-1------------------|

|------------------------|--------------------------|
|------------------------|--------------------------|
|------------------------|--------------------------|
|------------------------|------------0-------------|
|-0-3-2------------------|-0-3-2--------3-3-2-3-2---|
|-------3-1--0-1-0-1-3-3-|-------3-1--------------3-|


|----------------------|----------------------|
|----------------------|----------------------|
|----------------------|----------------------|
|----------------------|----------------------|
|-0-0--0-0-0--0--0-0-0-|-0-0--0-0-0--0--0-0-0-|
|----------------------|----------------------|

|---------------------------5-|---------------------------|
|-------------------------5---|---------------------------|
|-----------------------------|---------------------------|
|-----------------------------|---------------------------|
|-4--4-4--4-4-4--4--4-4-4-----|-0-0--0-0-0--0--0-0-0--0-1-|
|-----------------------------|---------------------------|

|------------------------5---|---------------------------|
|----------------------5---5-|---------------------------|
|----------------------------|---------------------------|
|----------------------------|---------------------------|
|-0-0--0-0-0--0--0-0-0-------|-0-0--0-0-0--0--0-0-0--0-1-|
|----------------------------|---------------------------|

|---------------------18-|
|------------------------|
|------------------------|
|---------7-5------------|
|-0--0--0-----6-5---0----|
|-----------------8------|

|-----------------------------|-------------18-------|
|-----------------------------|----------------------|
|-----------------------------|----------------------|X4
|-----------------------------|-7-5------------------|
|-0-0-0-0---0----0------------|-----6-5---0----------|
|---------8---10---12-6-6-6-6-|---------8------------|

|--------------------------|---------------------------|
|--------------------------|-----------------------8-9-|
|--------------------------|---------------------------|X8
|--------0-7\6---------0-8-|--------0-7\6--------------|
|-0-0--8---------0-0--8----|-0-0--8--------0-0-0-0-----|
|--------------------------|---------------------------|

|-------------------------------|-----------------------------7-|
|-----------------------------8-|------8-10---------------------|
|-----9----10-----------10------|-----------9--9-10-9-----------|X8
|-------10-----------10----10---|---------------------12-10-9---|
|-0-0----------0-0--------------|-0-0---------------------------|
|-------------------------------|-------------------------------|

|-------------------------------|-------------------------------|
|-----------------------------8-|------8-10---------------------|
|-----9----10-----------10------|-----------9--9-10-9-----------|
|-------10-----------10----10---|---------------------12-10-12--|X8
|-0-0----------0-0--------------|-0-0---------------------------|
|-------------------------------|-------------------------------|


*SINGING*


|---------------------------------|-----------------| |
|---------------------------------|-----------------| | 
|---------------------------------|-----------------| |   
|---------------------------------|-----------------| |   
|-7-7-7-7-7-7-7-7-7-7-7-7-7-7-7-7-|-7-8-8-8-8-8-8-8-| |      
|---------------------------------|-----------------| |   
                                                      |x4
|-------------------------------------------------|   |
|-------------------------------------------------|   | 
|-------------------------------------------------|   |   
|-------------------------------------------------|   |   
|-------------------------------------------------|   |   
|-10-10-10-10-10-10-10-10-------------------------|   |    

(melody in bass but if u want to play that in guitar, i translated that.
The translated should match with the original one)

|---------------------------------|-----------------| |
|---------------------------------|-----------------| | 
|---------------------------------|-----------------| |   
|---------------------------------|-----------------| |   
|-7-7---------7-7-7-7-------------|-7-8---------8-8-| |      
|---------------------------------|-----------------| |X4
                                                      |
|-------------------------------------------------|   |
|-------------------------------------------------|   | 
|-------------------------------------------------|   |   
|-------------------------------------------------|   |   
|-7--8--7-----5--8--------------------------------|   |   
|----------7--------------------------------------|   |    


|---------------------------------|-----------------| |
|---------------------------------|-----------------| | 
|---------------------------------|-----------------| |   
|---------------------------------|-----------------| |   
|-0-0---------0-0-0-0-------------|-0-0---------0-0-| |      
|---------------------------------|-----------------| |X4
                                                      |
|-------------------------------------------------|   |
|-------------------------------------------------|   | 
|-------------------------------------------------|   |   
|-------------------------------------------------|   |   
|-0--1--0-------1---------------------------------|   |   
|----------0--3-----------------------------------|   |    



|---------------------------------------------------------| |
|-------------------------------12-10---------------------| |
|-------------------------------------12-11-12-11-9----11-| | 
|---------------------------------------------------12----| |
|---7-8-7-9-10-9-7----7-----------------------------------| |
|-5----------------10----5-7-8----------------------------| |
                                                           X7
|---------------------------------------------------------| |
|---------------------------------------------------------| |
|---------------------------------------------------------| | 
|-------------------9----9-10-9-10-12-10--9-7-9-7------7--| |
|---7-8-7-9-10-9-12---12--------------------------10-9----| |
|-5-------------------------------------------------------| |
									


911Tabs.com - tabs search engine
More "Turn The Other Way" tabs @ 911Tabs

A Guide to Tab NotationGuitar TabsGuitar ResourcesGuitar TabsPrivacy PolicyGuitar TabsContact

Online Guitar Lessons

Avenged Sevenfold Guitar Tabs - Over 200,000 chords, guitar and bass tabs with video. Find tabs, video guitar lessons and more.