Music Guitar Tab, Tabs with MP3, ringtones, ringtone, concert tickets, guitar lessons, guitar tabs easy, guitar hero

Guitar Tabs Guitar Chords Bass Tabs
 Web Guitar Tabs
Guitar Lessons
 
Lyrics abcdefghijklmnopqrstuvwxyz # Top 100 Lyrics

Guitar Tabs
Guitar Tab






click on, click off


Tab for "Trashed And Scattered" - Avenged Sevenfold Rating 4Print Guitar Tabs
select alternative YouTube videos below...
Tweak the search term to refine the YouTube video results:         
Share on Facebook

Learn to play this song and others via online guitar lessons @ JamPlay.com!

TRASHED & SCATTERED (Bassline)
As recorded by Avenged Sevenfold
(From the 2005 Album CITY OF EVIL)

Gtr I (D A D G)

 Intro
  Q=175
 4/4
  Gtr I
|----------|----------|-----------|------------|
|----------|----------|-----------|------------|
|----------|-1--------|------5----|-4--7--5----|
|-0--------|----------|-3---------|------------|


   Verse
    $
||--------------------------|-------------------------|
||o-------------------------|-------------------------|
||o-5-5-5-5-5-5-5-5-5-5-5-5-|-5-5-5-5-5-5-5-5-5-5-5-5-|
||--------------------------|-------------------------|


|-------------------------|-------------------------|
|-------------------------|-------------------------|
|-3-3-3-3-3-3-3-3-3-3-3-3-|-3-3-3-3-3-3-3-3-3-3-3-3-|
|-------------------------|-------------------------|


|-------------------------|-------------------------|
|-------------------------|-------------------------|
|-1-1-1-1-1-1-1-1-1-1-1-1-|-1-1-1-1-1-1-1-1-1-1-1-1-|
|-------------------------|-------------------------|


  1.
|-------------------------|--------------------------||
|-------------------------|-------------------------o||
|-------------------------|-------------4-4-4-4-4-4-o||
|-3-3-3-3-3-3-3-3-3-3-3-3-|-7-7-7-7-7-7--------------||


  2.
|-------------------------------------|---------------------------------|
|-------------------------------------|---------------------------------|
|-8-8-8-8-7-7-7-7-5-5-5-5-------------|---------4-4-4-4-7-7-7-7-4-4-4-4-|
|-------------------------10-10-10-10-|-7-7-7-7-------------------------|


||--------------------------|-------------------------|
||o-------------------------|-------------------------|
||o-5-5-5-5-5-5-5-5-5-5-5-5-|-5-5-5-5-5-5-5-5-5-5-5-5-|
||--------------------------|-------------------------|


|-------------------------|-------------------------|
|-------------------------|-------------------------|
|-3-3-3-3-3-3-3-3-3-3-3-3-|-3-3-3-3-3-3-3-3-3-3-3-3-|
|-------------------------|-------------------------|


|-------------------------|-------------------------|
|-------------------------|-------------------------|
|-1-1-1-1-1-1-1-1-1-1-1-1-|-1-1-1-1-1-1-1-1-1-1-1-1-|
|-------------------------|-------------------------|


  1.
|-------------------------|--------------------------||
|-------------------------|-------------------------o||
|-------------------------|-------------4-4-4-4-4-4-o||
|-3-3-3-3-3-3-3-3-3-3-3-3-|-7-7-7-7-7-7--------------||


  2.
                                                               To Coda
|-------------------------------------|---------------------------------|
|-------------------------------------|---------------------------------|
|-8-8-8-8-7-7-7-7-5-5-5-5-------------|---------4-4-4-4-7-7-7-7-4-4-4-4-|
|-------------------------10-10-10-10-|-7-7-7-7-------------------------|


 Bridge
|----------------|-------------------|----------------|-------------------|
|----------------|-------------------|----------------|-------------------|
|----------------|-------------------|----------------|-----------/8-8--8-|
|-0--5S6-5-0-3-0-|-(0)-0-3-0-6-0-5-0-|-0--5S6-5-0-3-0-|-(0)-0-3-5---------|


|----------------|-------------------|----------------|-------------------|
|----------------|-------------------|----------------|-------------------|
|----------------|-------------------|----------------|-----------/8-8--8-|
|-0--5S6-5-0-3-0-|-(0)-0-3-0-6-0-5-0-|-0--5S6-5-0-3-0-|-(0)-0-3-5---------|


   Chorus
||----------------|--------------------|-----------------|-------------------|
||o---------------|--------------------|-----------------|-------------------|
||o-5--5--5-5-----|--------------------|-1--x---------3--|-3-3-(3)--4-0-2-4--|
||------------3-3-|-(3)-3-3--(3)-3-3-3-|------3-(3)-x----|-------------------|


|---------------|--------------------|---------------|-----------------------||
|-------3-2-----|--------------------|---------------|----------------------o||
|-5--5------5---|--------------------|-3--3--3-3-5-1-|-(1)-1-1-/8-(8)-7-----o||
|-------------3-|-(3)-3-3--(3)-3-3-3-|---------------|------------------10---||


 Breakdown
|-----------------|-----------------|-----------------|-----|
|-----------------|-----------------|-----------------|-----|
|-----------------|-----------------|-----------------|-----|
|-0-0-0-3-0-0-0-5-|-0-0-0-6-0-0-5-6-|-0-0-0-5-0-3-5-0-|-----|


|--------------|--------------|-------------------|----------------|
|--------------|--------------|-------------------|----------------|
|-5---4-(4)----|-3---1-(1)----|-------------------|----------------|
|--------------|--------------|-7---5-(5)-3-(3)-0-|-(0)-----0-(0)--|


                                              D.S. al Coda
|--------------|--------------|-------------------|-----------|
|--------------|--------------|-------------------|-----------|
|-5---4-(4)----|-3---1-(1)----|-------------------|-----------|
|--------------|--------------|-7---5-(5)-3-(3)-0-|-(0)-------|


   Interlude
    &
||--------------------------|-------------------------|
||o-------------------------|-------------------------|
||o-5-5-5-5-5-5-5-5-5-5-5-5-|-------------------------|
||--------------------------|-7-7-7-7-7-7-7-7-7-7-7-7-|


|-------------------------|----------------------------||
|-------------------------|---------------------------o||
|-3-3-3-3-3-3-3-3-3-3-3-3-|---------------------------o||
|-------------------------|-5-5-5-5-5-5-5-5-5-5-5-5----||


||--------------------------|-------------------------|
||o-------------------------|-------------------------|
||o-------------------------|-------------------------|
||--3-3-3-3-3-3-3-3-3-3-3-3-|-3-3-3-3-3-3-3-3-3-3-3-3-|


|-------------------------|-------------------------|
|-------------------------|-------------------------|
|-3-3-3-3-3-3-3-3-3-3-3-3-|-3-3-3-3-3-3-3-3-3-3-3-3-|
|-------------------------|-------------------------|


|-------------------------|-------------------------|
|-------------------------|-------------------------|
|-1-1-1-1-1-1-1-1-1-1-1-1-|-1-1-1-1-1-1-1-1-1-1-1-1-|
|-------------------------|-------------------------|


  1.
|-------------------------|--------------------------||
|-------------------------|-------------------------o||
|-0-0-0-0-0-0-0-0-0-0-0-0-|-0-0-0-0-0-0-0-0-0-0-0-0-o||
|-------------------------|--------------------------||


  2.
|-------------------------|-------------------------|
|-------------------------|-------------------------|
|-0-0-0-0-0-0-0-0-0-0-0-0-|-4-4-4-4-4-4-4-4-4-4-4-4-|
|-------------------------|-------------------------|


 Bridge
|----------------|----------------|----------------|-----------------------|
|----------------|----------------|----------------|-----------------------|
|----------------|----------------|----------------|------------5b7r=(5)---|
|-0-0-0-0-0------|-0-0-0-0-0------|-0-0-0-0-0------|-0-0-0-0-0-------------|


|----------------|-------------------|----------------|-------------------|
|----------------|-------------------|----------------|-------------------|
|----------------|-------------------|----------------|-----------/8-8--8-|
|-0--5S6-5-0-3-0-|-(0)-0-3-0-6-0-5-0-|-0--5S6-5-0-3-0-|-(0)-0-3-5---------|


|----------------|-------------------|----------------|-------------------|
|----------------|-------------------|----------------|-------------------|
|----------------|-------------------|----------------|-----------/8-8--8-|
|-0--5S6-5-0-3-0-|-(0)-0-3-0-6-0-5-0-|-0--5S6-5-0-3-0-|-(0)-0-3-5---------|


|----------------|-------------------|----------------|-------------------|
|----------------|-------------------|----------------|-------------------|
|----------------|-------------------|----------------|-----------/8-8--8-|
|-0--5S6-5-0-3-0-|-(0)-0-3-0-6-0-5-0-|-0--5S6-5-0-3-0-|-(0)-0-3-5---------|


|----------------|-------------------|----------------|-------------------|
|----------------|-------------------|----------------|-------------------|
|----------------|-------------------|----------------|-----------/8-8--8-|
|-0--5S6-5-0-3-0-|-(0)-0-3-0-6-0-5-0-|-0--5S6-5-0-3-0-|-(0)-0-3-5---------|


 Breakdown
|--------------|--------------|-------------------|----------------|
|--------------|--------------|-------------------|----------------|
|-5---4-(4)----|-3---1-(1)----|-------------------|----------------|
|--------------|--------------|-7---5-(5)-3-(3)-0-|-(0)-----0-(0)--|


|--------------|--------------|-------------------|----------|
|--------------|--------------|-------------------|----------|
|-5---4-(4)----|-3---1-(1)----|-------------------|----------|
|--------------|--------------|-7---5-(5)-3-(3)-0-|-(0)------|


   Chorus
||----------------|--------------------|-----------------|-------------------|
||o---------------|--------------------|-----------------|-------------------|
||o-5--5--5-5-----|--------------------|-1--x---------3--|-3-3-(3)--4-0-2-4--|
||------------3-3-|-(3)-3-3--(3)-3-3-3-|------3-(3)-x----|-------------------|


|---------------|--------------------|---------------|-----------------------||
|-------3-2-----|--------------------|---------------|----------------------o||
|-5--5------5---|--------------------|-3--3--3-3-5-1-|-(1)-1-1-/8-(8)-7-----o||
|-------------3-|-(3)-3-3--(3)-3-3-3-|---------------|------------------10---||


   Bridge
||----------------------------|----------------------------|
||o---------------------------|----------------------------|
||o-5-5-5-5-5-5-5-5-5-5-5-5-5-|----------------------------|
||----------------------------|-7-7-7-7-7-7-7-7-7-7-7-7-7--|


                                   ~
                                         4x
|-----------------------|----------------||
|-----------------------|----------7----o||
|-----------------------|------5-8------o||
|-8-8-8-8-8-8-(8)-5-3-0-|-(0)------------||


 Outro
|----------------|----------------|----------------|-----------------------|
|----------------|----------------|----------------|-----------------------|
|----------------|----------------|----------------|------------5b7r=(5)---|
|-0-0-0-0-0------|-0-0-0-0-0------|-0-0-0-0-0------|-0-0-0-0-0-------------|


|----------------|----------------------|------------------|
|----------------|----------------------|------------------|
|----------------|----------------------|------------------|
|-0-0-0-0-0------|---0-0-0-0-0--0-0-0-0-|-0--0-0-0-0-0-----|


|----------------------|-----------------|
|----------------------|-----------------|
|----------------------|-----------------|
|---0-0-0-0-0--0-0-0-0-|-0--0-0-0-0-0----|


|----------------------|-----------------|
|----------------------|-----------------|
|----------------------|-----------------|
|---0-0-0-0-0--0-0-0-0-|-0--0-0-0-0-0----|


|----------------------|-----------------|-----------------------|
|----------------------|-----------------|-----------------------|
|----------------------|-----------------|-5-5-5-5-5--5-5-5-5-5--|
|---0-0-0-0-0--0-0-0-0-|-0--0-0-0-0-0----|-----------------------|


|----------------------|-----------------------|
|----------------------|-----------------------|
|-3-3-3-3-3-3-3-3-3----|-3-3-3-3-3--3-3-3-3-3--|
|----------------------|-----------------------|


|----------------------|-----------------------|
|----------------------|-----------------------|
|-1-1-1-1-1-1-1-1-1----|-1-1-1-1-1--1-1-1-1-1--|
|----------------------|-----------------------|


|----------------------|-----------------------|
|----------------------|-----------------------|
|----------------------|------------4-4-4-4-4--|
|-3-3-3-3-3-3-3-3-3----|-7-7-7-7-7-------------|


|----------------------|-----------------------|
|----------------------|-----------------------|
|-5-5-5-5-5-5-5-5-5----|-5-5-5-5-5--5-5-5-5-5--|
|----------------------|-----------------------|


|----------------------|-----------------------|
|----------------------|-----------------------|
|-3-3-3-3-3-3-3-3-3----|-3-3-3-3-3--3-3-3-3-3--|
|----------------------|-----------------------|


|----------------------|-----------------------|
|----------------------|-----------------------|
|-1-1-1-1-1-1-1-1-1----|-1-1-1-1-1--1-1-1-1-1--|
|----------------------|-----------------------|


|----------------------|-----------------------|
|----------------------|-----------------------|
|----------------------|------------4-4-4-4-4--|
|-3-3-3-3-3-3-3-3-3----|-7-7-7-7-7-------------|


|----------------------|-----------------------|
|----------------------|-----------------------|
|-5-5-5-5-5-5-5-5-5----|-5-5-5-5-5--5-5-5-5-5--|
|----------------------|-----------------------|


|----------------------|-----------------------|
|----------------------|-----------------------|
|-3-3-3-3-3-3-3-3-3----|-3-3-3-3-3--3-3-3-3-3--|
|----------------------|-----------------------|


|----------------------|-----------------------|
|----------------------|-----------------------|
|-1-1-1-1-1-1-1-1-1----|-1-1-1-1-1--1-1-1-1-1--|
|----------------------|-----------------------|


|----------------------|-----------------------|
|----------------------|-----------------------|
|----------------------|------------4-4-4-4-4--|
|-3-3-3-3-3-3-3-3-3----|-7-7-7-7-7-------------|


|----------------------|-----------------------|
|----------------------|-----------------------|
|-5-5-5-5-5-5-5-5-5----|-5-5-5-5-5--5-5-5-5-5--|
|----------------------|-----------------------|


|----------------------|-----------------------|
|----------------------|-----------------------|
|-3-3-3-3-3-3-3-3-3----|-3-3-3-3-3--3-3-3-3-3--|
|----------------------|-----------------------|


|----------------------|-----------------------|
|----------------------|-----------------------|
|-1-1-1-1-1-1-1-1-1----|-1-1-1-1-1--1-1-1-1-1--|
|----------------------|-----------------------|


|----------------------|-----------------------|
|----------------------|-----------------------|
|----------------------|------------4-4-4-4-4--|
|-3-3-3-3-3-3-3-3-3----|-7-7-7-7-7-------------|


|---------------|--------5-----|---------------|--------------|
|---------------|-/5--3--------|---------------|-/8--7--5-----|
|---------------|-----------5--|-3----3--(3)-3-|-----------8--|
|-3----3--(3)-3-|--------------|---------------|--------------|


|---------------|-----------------|---------------|-----------------|
|---------------|-5-3-2---------2-|---------------|-----------------|
|------1--(1)-1-|-------3-0-1-3---|-0----0--(0)-0-|-/4--4-4-/7--7-7-|
|-8-------------|-----------------|---------------|-----------------|


|---------------|--------5-----|---------------|--------------|
|---------------|-/5--3--------|---------------|-/8--7--5-----|
|---------------|-----------5--|-3----3--(3)-3-|-----------8--|
|-3----3--(3)-3-|--------------|---------------|--------------|


                                                  H.=H
|---------------|-----------------|---------------|--------|
|---------------|-5-3-2---------2-|---------------|--------|
|------1--(1)-1-|-------3-0-1-3---|-0----0--(0)-0-|-(0)----|
|-8-------------|-----------------|---------------|--------|


             Q=90
|------------|------|
|------------|------|
|-(0)--------|------|
|------------|-3----|


|------------|------------*|
|------------|------------*|
|------------|------------*|
|-(3)--------|-(3)--------*|

Tablature Legend
----------------
 h   - hammer-on
 p   - pull-off
 b   - bend
 pb  - pre-bend
 r   - bend release (if no number after the r, then release immediately)
 /\  - slide into or out of (from/to "nowhere")
 s   - legato slide
 S   - shift slide
 - natural harmonic
[n]  - artificial harmonic
n(n) - tapped harmonic
 ~   - vibrato
 tr  - trill
 T   - tap
 TP  - trem. picking
 PM  - palm muting
\n/  - tremolo bar dip; n = amount to dip
 \n  - tremolo bar down
 n/  - tremolo bar up
/n\  - tremolo bar inverted dip
 =   - hold bend; also acts as connecting device for hammers/pulls
 <> - volume swell (louder/softer)
 x   - on rhythm slash represents muted slash
 o   - on rhythm slash represents single note slash

Misc Legend
-----------
 |  - bar
||  - double bar
||o - repeat start
o|| - repeat end
*|  - double bar (ending)
 :  - bar (freetime)
 $  - Segno
 &  - Coda
Tempo markers -  = BPM(8/16=s8/s16), where s8 = swing 8ths, s16 = swing 16ths
									


911Tabs.com - tabs search engine
More "Trashed And Scattered" tabs @ 911Tabs

A Guide to Tab NotationGuitar TabsGuitar ResourcesGuitar TabsPrivacy PolicyGuitar TabsContact

Online Guitar Lessons

Avenged Sevenfold Guitar Tabs - Over 200,000 chords, guitar and bass tabs with video. Find tabs, video guitar lessons and more.