Music Guitar Tab, Tabs with MP3, ringtones, ringtone, concert tickets, guitar lessons, guitar tabs easy, guitar hero

Guitar Tabs Guitar Chords Bass Tabs
 Web Guitar Tabs
Guitar Lessons
 
Lyrics abcdefghijklmnopqrstuvwxyz # Top 100 Lyrics

Guitar Tabs
Guitar Tab






click on, click off


Tab for "To End The Rapture" - Avenged Sevenfold Rating 4Print Guitar Tabs
select alternative YouTube videos below...
Tweak the search term to refine the YouTube video results:         
Share on Facebook

Learn to play this song and others via online guitar lessons @ JamPlay.com!

---------------------------------------------------------------------------
                        The First Of The Fallen
----------------------------------------------------------------------------
Tabbed by: Acdcone15
Email: Acdcone15@yahoo.com

Guitar 1: Marc
Guitar 2: Joe

Tuning: Drop D, Half-step down

Guitar 1: Clean
e|-------------------------------------------------------------------------|
B|------------------------7~-6~-7-9------------------------12~-11~-12~-/15-|
G|---7--6-7-6~--4--4-6-4~------------7--6-7-6~--4--4-6-4~------------------|
D|-------------------------------------------------------------------------|
A|-------------------------------------------------------------------------|
D|-------------------------------------------------------------------------|

Guitar 2: Clean
e|-------------------------------------------------------------------------|
B|-------------------------------------------------------------------------|
G|-------------------------------------------------------------------------|
D|---00000--44444--99999--55555--------------------------------------------|
A|---00000--44444--99999--55555--------------------------------------------|
D|---00000--44444--99999--55555--------------------------------------------|

Pre-verse

Guitar 1:
e|-------------------------------------------------------------------------|
B|-------------------------------------------------------------------------|
G|-------------------------------------------------------------------------|
D|-------------------------------------------------------------------------|
A|---0000-3-0000-5-0000-6-0000-8-0000-10~----------------------------------|
D|-------------------------------------------------------------------------|

Verse

Both Guitars:
e|-------------------------------------------------------------------------|
B|-------------------------------------------------------------------------|
G|-------------------------------------------------------------------------|
D|--0----0----0----0----0--0-3----3----3----3----3--3-5----5----5----5-----|
A|--0----0----0----0----0--0-3----3----3----3----3--3-5----5----5----5-----|
D|--000000000000000000000000-333333333333333333333333-55555555555555555555-|
Pm   .... .... .... .... ..   .... .... .... .... ..   .... .... .... ....
e|-------------------------------------------------------------------------|
B|-------------------------------------------------------------------------|
G|-------------------------------------------------------------------------|
D|---5--5-8----8----8----8----8--8-10--------------------------------------|
A|---5--5-8----8----8----8----8--8-10--------------------------------------|
D|---5555-888888888888888888888888-101010101010101010101010101010101010----|
Pm    ..   .... .... .... .... ..    ..................................
e|-------------------------------------------------------------------------|
B|-------------------------------------------------------------------------|
G|-------------------------------------------------------------------------|
D|-------------------------------------------------------------------------|
A|---3tr5------------------------------------------------------------------|
D|-------------------------------------------------------------------------|

Bridge

Both Guitars:
e|-------------------------------------------------------------------------|
B|-------------------------------------------------------------------------|
G|----------------------------------3--3--5--5-----------------------------|
D|---0--0----0--3--3----3-5--5----5-3--3--5--5-----------------------------|
A|---0--0----0--3--3----3-5--5----5-111111333333---------------------------|
D|---000000000--333333333-555555555----------------------------------------|
Pm    .. ....    .. ....   .. ....   .. .. .. .. 

Pre-Chorus

Both Guitars:
e|-------------------------------------------------------------------------|
B|-------------------------------------------------------------------------|
G|-------5/4-------5\7-------5/4-------------------------------------------|
D|--0----x-x-0-----x-x-0-----x-x-0------2-3-4------------------------------|
A|--0----3/2-0-----3\5-0-----3/2-0------2-3-4------------------------------|
D|--00000----00000-----00000-----000000-2-3-4------------------------------|

Chorus:


Both Guitars:
e|-------------------------------------------|
B|-------------------------------------------|
G|-------------------------------------------| x2
D|---555555551111110133333----3----3-0-3-----|
A|---555555551111110133333----3----3-0-3-----|
D|---555555551111110133333-00-3-00-3-0-3-----|

*Verse*
*Bridge*
*Pre-Chorus*
*Chorus* x2

Interlude

Guitar 1:
e|-------------------------------------------------------------------------|
B|-------------------------------------------------------------------------|
G|-------------------------------------------------------------------------|
D|---0~--------------0~----------------------------------------------------|
A|---0~--------------0~----------------------------------------------------|
D|---0~--------------0~----------------------------------------------------|

Guitar 2:
e|---11111111111111111111111111111111--------------------------------------|
B|---33333333333333333333333333333333--------------------------------------|
G|---22222222222222222222222222222222--------------------------------------|
D|---00000000000000000000000000000000--------------------------------------|
A|-------------------------------------------------------------------------|
D|-------------------------------------------------------------------------|

Both Guitars:
e|---11111111-------------------33333333-----|
B|---22222222-11111111-33333333-33333333-----|
G|---33333333-22222222-44444444-00000000-----| Guitar 2
D|---00000000-33333333-44444444-00000000-----|  Play x4
A|---------------------22222222-xxxxxxxx-----|
D|------------------------------55555555-----|

PLay after Second time 

Guitar 1:
e|---------------------14~~~~~~-12~~~~~~-----|
B|---18~~~~~-15~~~~~~~-----------------------|
G|-------------------------------------------| x 2
D|-------------------------------------------|
A|-------------------------------------------|
D|-------------------------------------------|

Solo

Guitar 1:
e|------------------------------------------10h12h13p12p10-----------------|
B|---/15-------------------------------------------------------------------|
G|-------14-12-------------------------------------------------------------|
D|----------------------------12-12/15-10~---------------------------------|
A|-------------------10h12h13----------------------------------------------|
D|-------------10h12-------------------------------------------------------|

e|---12/17-15--15/18-17--17/20-18--16-18-16--------------------------------|
B|---------------------------------------------------------11-15-18--------|
G|------------------------------------------------11-15-16-----------------|
D|--------------------------------------------/15--------------------------|
A|-------------------------------------------------------------------------|
D|-------------------------------------------------------------------------|

e|---------------------------17--------------------------------------------|
B|---------------------15b17----15b17-13--181615181615181615181615---------|
G|---15T-17T-18T-20T-----------------------------------------------17~-----|
D|-------------------------------------------------------------------------|
A|-------------------------------------------------------------------------|
D|-------------------------------------------------------------------------|

e|---13151616151313151616151313151616p15p13-18-201816201816201816----------|
B|----------------------------------------------------------------18~------|
G|-------------------------------------------------------------------------|
D|-------------------------------------------------------------------------|
A|-------------------------------------------------------------------------|
D|-------------------------------------------------------------------------|

e|-------------------------------------------------------------------------|
B|-------------------------------------------------------------------------|
G|------------12-14-15--14/17~-----------15-17-18-17/20~-------------------|
D|---12-14-15-------------------15-17-18-----------------------------------|
A|-------------------------------------------------------------------------|
D|-------------------------------------------------------------------------|

e|------------15----------17151412-----------------------------------------|
B|---12-14-15----15-1414----------151412-----------------------------------|
G|--------------------------------------151412-----------------------------|
D|--------------------------------------------14~--------------------------|
A|-------------------------------------------------------------------------|
D|-------------------------------------------------------------------------|

e|-------------------------10t5h7p5-10t5h8p5-x4--12t7h9p7-12t7h10p7-x4-----|
B|---10t5h7p5-10t5h8p5-x4--------------------------------------------------|
G|-------------------------------------------------------------------------|
D|-------------------------------------------------------------------------|
A|-------------------------------------------------------------------------|
D|-------------------------------------------------------------------------|

e|---/13-10-13-12~---------------------------------------------------------|
B|-------------------------------------------------------------------------|
G|-------------------------------------------------------------------------|
D|-------------------------------------------------------------------------|
A|-------------------------------------------------------------------------|
D|-------------------------------------------------------------------------|

Guitar 2:
e|----------------------------------------------------------------|
B|----------------------------------------------------------------|
G|----------------------------------------------------------------| x2
D|---0--------------4----4----4----9-------------5----5----5------|
A|---0--------------4----4----4----9-------------5----5----5------|
D|---00000000000000044444444444444499999999999999555555555555555--|
Pm    .............. .... .... .... ............. .... .... ....
e|-------------------------------------------------------------------------|
B|-------------------------------------------------------------------------|
G|-------------------------------------------------------------------------|
D|--------7------9------10------12-----------------------------------------|
A|--------7------9------10------12-----------------------------------------|
D|---0000-7-0000-9-0000-10-0000-12-----------------------------------------|
Pm   ....   ....   ....    ....
e|----------------------------------------|
B|----------------------------------------|
G|---7777777755555555---------------------| x2
D|---77777777555555557777777744445555-----|
A|---55555555333333337777777744445555-----|
D|-------------------7777777744445555-----|

Post Solo

Guitar 1:
e|-------------------------------------------------------------------------|
B|-------------------------------------------------------------------------|
G|-------------------------------------------------------------------------|
D|---9--9-7--7-5--5----5---------------------------------------------------|
A|---9--9-7--7-5--5----5---------------------------------------------------|
D|---9999-7777-5555-5555---------------------------------------------------|
Pm    ..   ..   ..  ...

e|---19-15----------15-17-13----------13-15-12----------12------|
B|--------17------17--------15------15--------13------13--------|
G|----------16--16------------14--14------------12--12----------|
D|------------17----------------15----------------13------------|
A|--------------------------------------------------------------|
D|--------------------------------------------------------------|
e|---15-12------------------|
B|---------15-12----12-15---|
G|----------------13--------| Sweep played 
D|--------------14----------|   every other time
A|--------------------------|
D|--------------------------|

Guitar 2
e|--------------------------------------------------------|
B|--------------------------------------------------------|
G|--------------------------------------------------------| x2
D|---9--9-7--7-5--5----5--------9-------7-------5----5----|
A|---9--9-7--7-5--5----5--------9-------7-------5----5----|
D|---9999-7777-5555-5555--9999999-7777777-5555555--555----|
Pm    ..   ..   ..  ...   ......  ......  ......   ..

Both Guitars:
e|-------------|
B|-------------|
G|-------------|
D|---2-3-4-----|
A|---2-3-4-----|
D|---2-3-4-----|

*Chorus* x2

Play this for the very final chorus riff...

Both Guitars:
e|-----------------------------------------------|
B|-----------------------------------------------|
G|-----------------------------------------------|
D|---555555-111101-333333----3----3----3-0-3/5---|
A|---555555-111101-333333----3----3----3-0-3/5---|
D|---555555-111101-333333-00-3-00-3-00-3-0-3/5---|


| Tr Trill
| t  Finger Tap
| T  Tremelo Picking
| /  slide up
| \  slide down
| h  hammer-on
| p  pull-off
| ~  vibrato
| +  harmonic
| x  Mute note
============================================================================

									


911Tabs.com - tabs search engine
More "To End The Rapture" tabs @ 911Tabs

A Guide to Tab NotationGuitar TabsGuitar ResourcesGuitar TabsPrivacy PolicyGuitar TabsContact

Online Guitar Lessons

Avenged Sevenfold Guitar Tabs - Over 200,000 chords, guitar and bass tabs with video. Find tabs, video guitar lessons and more.