Music Guitar Tab, Tabs with MP3, ringtones, ringtone, concert tickets, guitar lessons, guitar tabs easy, guitar hero

Guitar Tabs Guitar Chords Bass Tabs
 Web Guitar Tabs
Guitar Lessons
 
Lyrics abcdefghijklmnopqrstuvwxyz # Top 100 Lyrics

Guitar Tabs
Guitar Tab






click on, click off


Tab for "The Wicked End" - Avenged Sevenfold Rating 4Print Guitar Tabs
select alternative YouTube videos below...
Tweak the search term to refine the YouTube video results:         
Share on Facebook

Learn to play this song and others via online guitar lessons @ JamPlay.com!

----------------------------------------------------------------------------
			     THE WICKED END - Avenged Sevenfold
----------------------------------------------------------------------------

Tabbed By : Gabriel Santana-Viera

e-mail: caca_king_89@yahoo.com

Tuning:Drod-D (DADG)




This songs not that hard to play but it is a lil' tricky. The pre-chorus was hard 2 tab out. 
I can hear something like a slide or an octave but I cant quite make it out, so if you know...
Email me... PLEASE!!! The rest of the song is pretty simple. Some parts do change a lil' so pay 
attention. Other than that, its all good.... have fun! 






Intro:
G|-------------------------------------|
D|*--6-7-6---6-------7---6---6--------*|
A|*--------8---8-7-8---8---8---8-7-8--*|
D|-------------------------------------|X4


G|----------|---------------------------------------|
D|----------|*-------------------------------------*|
A|----------|*-------------------------------------*|
D|-0-0------|--0-0--0-0--0-0------0-0-0-0-0-0-0-0---|X4


Verse:
G|------------------------------|--------------------------------------|
D|*-----------------------------|---------------------3h5-----5h7------|
A|*---------6-5-----3-5-----1-3-|-------------6-5----------------------|
D|--0-0-0-0-----0-0-----0-0-----|-0-0-0-0-0-0-----0-0-----0-0-----0-0--|

G|------------------------------|----------------------------------------|
D|------------------------------|---------------------3h5-----5h7p5-----*|
A|---------6-5-----3-5-----1-3--|-------------6-5-------------------8-7-*|
D|-0-0-0-0-----0-0-----0-0------|-0-0-0-0-0-0-----0-0-----0-0------------|X2


Pre-Chorus:
G|---------------------------|
D|-------5-7-8---------2--5--|
A|-5-7-8---------0--4--------|
D|---------------------------|


*This is the part i had trouble with. listen closely 
for the slides and octaves. This is as close as i could get
it and it sounds pretty good... to me
G|-------------------------------------------------------------|
D|*---------------8-------------------------------------------*|
A|*-5-5--8-7-5------------------------5-3-2-------------------*|
D|-------------8----8\--8-7-0-5--5-5--------3--3/5-3-2--2-3-0--|X2


Chorus:
G|-------------------------------------------------------------|
D|*-----------------------------------------------------------*|
A|*-5--5-5-5-5-5--1--1-1-1-1-0--------------------------------*|
D|------------------------------5--5-5-5-5-5--3--3-3-2--2-2-0--|X2


G|------------------------------------------------------|
D|------------------------------------------------------|
A|---------1-------------1-------------3-------------3--|
D|--1-------------1-------------3-------------3---------|


G|------------------------------------|
D|-----------------------------/8-7-0-|
A|-----------------------7------------|
D|-0-----0-8-7-6-----0-6--------------|


Intro/fill:
G|----------|---------------------------------------|
D|----------|*-------------------------------------*|
A|----------|*-------------------------------------*|
D|-0-0------|--0-0--0-0--0-0------0-0-0-0-0-0-0-0---|X2


Verse2:
G|------------------------------|--------------------------------------|
D|*-----------------------------|---------------------3h5-----5h7------|
A|*---------6-5-----3-5-----1-3-|-------------6-5----------------------|
D|--0-0-0-0-----0-0-----0-0-----|-0-0-0-0-0-0-----0-0-----0-0-----0-0--|

G|-----------------------------|----------------------------------------|
D|-----------------------------|---------------------3h5-----5h7p5-----*|
A|---------6-5-----3-5-----1-3-|-------------6-5-------------------8-7-*|
D|-0-0-0-0-----0-0-----0-0-----|-0-0-0-0-0-0-----0-0-----0-0------------|X2


Pre-Chorus:
G|---------------------------|
D|-------5-7-8---------2--5--|
A|-5-7-8---------0--4--------|
D|---------------------------|

G|-------------------------------------------------------------|
D|*---------------8-------------------------------------------*|
A|*-5-5--8-7-5------------------------5-3-2-------------------*|
D|--------------8----8\--8-7-0-5--5-5--------3--3/5-3-2--2-3-0-|X2


Chorus:
G|-------------------------------------------------------------|
D|*-----------------------------------------------------------*|
A|*-5--5-5-5-5-5--1--1-1-1-1-0--------------------------------*|
D|------------------------------5--5-5-5-5-5--3--3-3-2--2-2-0--|X2


*Heres another riff I think is a lil' off, but it still sounds good...
Chorus pt.2:
G|-----------------------------------------------------------------|
D|*---------------------------------------------------------------*|
A|*-5-5-5-5-7-8-5-----------8-7-----------------------------------*|
D|----------------8-8-8-8-8-----7-5-5-5-5-5-5-5-5-8-8-8-8-7-7-7-7--|X2


G|------------------------------------------------------|
D|------------------------------------------------------|
A|---------1-------------1-------------3-------------3--|
D|--1-------------1-------------3-------------3---------|



Guitar solo pt.1:
G|---------------------------------------------------|
D|---------------------------------------------------|
A|---------------------------------------------------|
D|-0---0-0-0-0-0-0-2----2-2-2-2-2-2-5----5-5-5-5-5-5-|

(continued)
G|---------------------------------------------------|
D|---------------------------------------------------|
A|---------------------------------------------------|
D|-/15-15-15-15-15-15-15-15--14-14-14-14-14-14-14-14-|


Guitar solo pt.2:
G|-------------------------------------------------------------|
D|*-----------------------------------------------------------*|
A|*-5--5-5-5-5-5--1--1-1-1-1-0--------------------------------*|
D|------------------------------5--5-5-5-5-5--3--3-3-2--2-2-0--|X4

G|--------|
D|--------|
A|--5-----|
D|--0-----|END




||---------*REST---------||
||----------FOR----------||
||-------ORCHESTRA-------||
||---------PART*---------||




*Band comes in*
Bridge/interlude thingy:
G|-----------------------------/7--------------------|
D|*--------------------------------8--7----7---------|
A|*--5----7-8-7--5--7--0--1--------------8---8-5--1--|
D|---------------------------------------------------|

G|----------------6--7--9-----------------------------------|
D|----------5--7-------------------------------------------*|
A|-0--4--7-----------------5-5-5-5-7-7-7-7-3-3-3-3---------*|
D|-------------------------------------------------8-8-7-7--|X2



G|-----------------------------------------|
D|-----------------------------------------|
A|-----------------------------------------|
D|-5---------5---------5---------5---------|

*The notes in (#) r octaves of the notes below them. 
I cant hear the difference on the 
CD but Im sure someone out there cares...
G|--------------------------------------------------|
D|--------------------------------------------------|
A|-(5)(5)(5)(5)(5)(5)(5)(5)(5)(5)(5)(5)(5)(5)(5)(5)-|
D|--0--0--0--0--0--0--0--0--0--0--0--0--0--0--0--0--|

G|--------------------------------------------------|
D|--------------------------------------------------|
A|-(7)(7)(7)(7)(7)(7)(7)(7)(7)(7)(7)(7)(7)(7)(7)(7)-|
D|--2--2--2--2--2--2--2--2--2--2--2--2--2--2--2--2--|

G|--------------------------------------------------|
D|--------------------------------------------------|
A|-(5)(5)(5)(5)(5)(5)(5)(5)(7)(7)(7)(7)(7)(7)(7)(7)-|
D|--0--0--0--0--0--0--0--0--2--2--2--2--2--2--2--2--|

G|--------------------------------------------------|
D|-------------------------(7)(7)(7)(7)(7)(7)(7)(7)-|
A|-(8)(8)(8)(8)(8)(8)(8)(8)-------------------------|
D|--3--3--3--3--3--3--3--3--7--7--7--7--7--7--7--7--|



G|-----------------------------/7--------------------|
D|---------------------------------8--7----7---------|
A|---5----7-8-7--5--7--0--1--------------8---8-5--1--|
D|---------------------------------------------------|

G|----------------6--7--9--------------------------------------|
D|----------5--7-----------------------------------------------|
A|-0--4--7-----------------5-5-5-5-7-7-7-7-3-3-3-3-------------|
D|-------------------------------------------------8-8-7-7-0---|



Fill:
G|-----------------|
D|-----------------|
A|-----------------|
D|-0-0-0-0-0-------|X4



G|-------------|
D|-------------|
A|-------------|
D|-0-0-0-0-0-0-|


Verse 3:
|---------------------------------|---------------------------------|
|---------------------------------|-----------------3h5---5h7---5h7-|
|---------6-5-----3-5---1h3---1h3-|---------6-5---------------------|
|-0-0-0-0-----0-0-----0-----0-----|-0-0-0-0-----0-0-----0-----0-----|

|---------------------------------|------------------------------|
|---------------------------------|--------5-7-8----------2---5--|
|---------6-5-----3-5---1h3---1h3-|-5-7-8----------0---4---------|
|-0-0-0-0-----0-0-----0-----0-----|------------------------------|


Final Chorus:
G|-------------------------------------------------------------|
D|*---------------8-------------------------------------------*|
A|*-5-5--8-7-5------------------------5-3-2-------------------*|
D|--------------8----8\--8-7-0-5--5-5--------3--3/5-3-2--2-3-0-|X2



G|-------------------------------------------------------------|
D|*-----------------------------------------------------------*|
A|*-5--5-5-5-5-5--1--1-1-1-1-0--------------------------------*|
D|------------------------------5--5-5-5-5-5--3--3-3-2--2-2-0--|X2



G|-----------------------------------------------------------------|
D|*---------------------------------------------------------------*|
A|*-5-5-5-5-7-8-5-----------8-7-----------------------------------*|
D|----------------8-8-8-8-8-----7-5-5-5-5-5-5-5-5-8-8-8-8-7-7-7-7--|X2


G|------------------------------------------------------|
D|------------------------------------------------------|
A|---------1-------------1-------------3-------------3--|
D|--1-------------1-------------3-------------3---------|


G|------------------------------------|
D|-----------------------------/8-7-0-|
A|-----------------------7------------|
D|-0-----0-8-7-6-----0-6--------------|


Outro:
G|----------------------------|
D|----------------------------|
A|----------------------------|
D|--0-0--0-0--0-0-------------|END


*There it is. thats the whole song. Questions comments or whatever, 
just e-mail me at caca_king_89@yahoo.com



| /  slide up
| \  slide down
| h  hammer-on
| p  pull-off
| ~  vibrato 
| x  Mute note
|* *|repeat 
|* *|bars
===============================================================================
									


911Tabs.com - tabs search engine
More "The Wicked End" tabs @ 911Tabs

A Guide to Tab NotationGuitar TabsGuitar ResourcesGuitar TabsPrivacy PolicyGuitar TabsContact

Online Guitar Lessons

Avenged Sevenfold Guitar Tabs - Over 200,000 chords, guitar and bass tabs with video. Find tabs, video guitar lessons and more.