Music Guitar Tab, Tabs with MP3, ringtones, ringtone, concert tickets, guitar lessons, guitar tabs easy, guitar hero

Guitar Tabs Guitar Chords Bass Tabs
 Web Guitar Tabs
Guitar Lessons
 
Lyrics abcdefghijklmnopqrstuvwxyz # Top 100 Lyrics

Guitar Tabs
Guitar Tab






click on, click off


Tab for "Synyster Gates Solo" - Avenged Sevenfold Rating 4Print Guitar Tabs
select alternative YouTube videos below...
Tweak the search term to refine the YouTube video results:         
Share on Facebook

Learn to play this song and others via online guitar lessons @ JamPlay.com!

-------------------------------------------------------------------------------
			     "Synyster Gates Solo" --- Avenged Sevenfold
-------------------------------------------------------------------------------

Tabbed by: [travis]
Email: syn_gates_punk14@msn.com


Tuning: Drop D (D A D G B E) (low to high)
                     or
        Standard (E A D G B E) (low to high)


*It really doesn't matter what tuning you use, I just added Drop D
since Synyster Gates uses Drop D.

*This tab is for the sweet "Sweep picking solo" Synyster Gates shows
you on a video on youtube. It's the video were Syn shows you a couple
of tips, on how to play like him. Some of the vids are based on dive bombs,
sweep picking, Beast and the Harlot intro, and soloing strategies.

*Search "Synyster Gates lesson," on youtube.com. Click on the vid that
says "Sweep Picking Lesson." The vid is from "Total Guitar Television."


Key:
b = bend
.5 = half step bend
/ = slide up
\ = slide down


Chords you can play before the solo, or under the solo: Check the vid for strumming.
e|------------------------------------|
B|------------------------------------|
G|-7-7---7-7-5-5---5-5-3-3---3-3-5-5--|
D|-7-7---7-7-5-5---5-5-3-3---3-3-5-5--|
A|-5-5---5-5-3-3---3-3-1-1---1-1-3-3--|
E|------------------------------------|


This is as close as I can tab it to sound just like the solo in the vid. There might
be one note or two missing, but this is pretty close.
e|-17-13--------------13-17-13--------------13-17-17/15-12--------------12-15-12---------|
B|------15----------15--------15----------15--------------13----------13--------13-------|
G|--------14------14------------14------14------------------12------12------------12-----|
D|----------15--15----------------15--15----------------------14--14----------------14---|
A|------------17--------------------17--------------------------15--------------------15-|
E|---------------------------------------------------------------------------------------|

e|-------12-15/18-13--------------13-18-13--------------13-17-18~~~~~~-|
B|-----13-----------15----------15--------15----------15---------------|
G|---12---------------15------15------------15------15-----------------|
D|-14-------------------15--15----------------15--15-------------------|
A|------------------------17--------------------17---------------------|
E|---------------------------------------------------------------------|

++++++++++++++++++++++++++++++++++++++++++++++
Here's an easier way of playing the solo from "The Wicked End." This vid helped
me out play the solo easier, so I'll tab it out:
e|-13-16-17-13--------------13-16-17-13--------------13-16-17-18-13--------------13-|
B|------------15----------15-----------15----------15--------------15----------15---|
G|--------------14------14---------------14------14------------------15------15-----|
D|----------------15--15-------------------15--15----------------------15--15-------|
A|------------------17-----------------------17--------------------------17---------|
E|----------------------------------------------------------------------------------|

e|-16-17-18-13--------------13-16-17-13--------------13-16-17-18-13--------------13-|
B|------------15----------15-----------15----------15--------------15----------15---|
G|--------------15------15---------------14------14------------------15------15-----|
D|----------------15--15-------------------15--15----------------------15--15-------|
A|------------------17-----------------------17--------------------------17---------|
E|----------------------------------------------------------------------------------|

                                                          .5         .5
e|-16-17-13--------------13-16-17/-21-17--------------17-21b~~~~~~~~------------|
B|---------15----------15---------------17----------17--------------21b~~~~~~~~~|
G|-----------14------14-------------------18------18----------------------------|
D|-------------15--15-----------------------19--19------------------------------|
A|---------------17---------------------------20--------------------------------|
E|------------------------------------------------------------------------------|


Hope this tab helped you guys out. Please comment and rate it.
[travis]




									


911Tabs.com - tabs search engine
More "Synyster Gates Solo" tabs @ 911Tabs

A Guide to Tab NotationGuitar TabsGuitar ResourcesGuitar TabsPrivacy PolicyGuitar TabsContact

Online Guitar Lessons

Avenged Sevenfold Guitar Tabs - Over 200,000 chords, guitar and bass tabs with video. Find tabs, video guitar lessons and more.