Music Guitar Tab, Tabs with MP3, ringtones, ringtone, concert tickets, guitar lessons, guitar tabs easy, guitar hero

Guitar Tabs Guitar Chords Bass Tabs
 Web Guitar Tabs
Guitar Lessons
 
Lyrics abcdefghijklmnopqrstuvwxyz # Top 100 Lyrics

Guitar Tabs
Guitar Tab






click on, click off


Tab for "Syns Solo Live" - Avenged Sevenfold Rating 4Print Guitar Tabs
select alternative YouTube videos below...
Tweak the search term to refine the YouTube video results:         
Share on Facebook

Learn to play this song and others via online guitar lessons @ JamPlay.com!

------------------------------------------------------------------------------
               Synyster's LIVE Solo - Avenged Sevenfold
-------------------------------------------------------------------------------
Tabbed by: Solopractice(sabun) and Seth Shadows
Email:linkinpark_neon@yahoo.com

Tuning:Drop D



e|-x----------x----------------------------------------------------------------|
b|---x----------x--------------------------------------------------------------|
g|-----x----------x------------------------------------------------------------|
d|-------8-~--------10-~------------6-----6h7---------8---------7---------6h7--|
a|-------8-~--------10-~----5-5-5-5---5-5-----5-5-5-5---5-5-5-5---5-5-5-5------|
d|-------8-~--------10-~-------------------------------------------------------|
                            + + + +   + +     + + + +   + + + +   + + + +       

e|---------------------------------------------------------|
b|---------------------------------------------------------|
g|---------------------------------------------------------|
d|----------6-----6h7---------8---------7---------6h7------|
a|--5-5-5-5---5-5-----5-5-5-5---5-5-5-5---5-5-5-5----------|
d|---------------------------------------------------------|
    + + + +   + +     + + + +   + + + +   + +   (last 2 fives no palm mute)

e|-------------------------------------------------------|
b|-------------------------------------------------------|
g|----------6-----6h7---------8---------7---------6h7----|
d|--5-5-5-5---5-5-----5-5-5-5---5-5-5-5---5-5-5-5--------|
a|-------------------------------------------------------|
d|-------------------------------------------------------|
    + + + +   + +     + + + +   + + + +   + + + +

e|---------------------------------------------------------|
b|---------------------------------------------------------|
g|---------------------------------------------------------|
d|----------6-----6h7---------8---------7---------6h7------|
a|--5-5-5-5---5-5-----5-5-5-5---5-5-5-5---5-5-5-5----------|
d|---------------------------------------------------------|
    + + + +   + +     + + + +   + + + +   + + + + 


e|-----------------------------------------------------|
b|-----------------------------------------------------|
g|-----------------------------------------------------|
d|----------7-----5-7-5--------------8----8-10-8-------|
a|--4-4-4-4---4-4-------6-~--6-6-6-6--6-6--------------|
d|-----------------------------------------------------|
    + + + +   + +            + + + +  + +                    

e|-------------------------------------------------------------|
b|-------------------------------------------------------------|
g|-------------------------------------------------------------|(then play it all over again)
d|--------------6-----6h7---------8---------7---------6h7------|
a|--/5~-5-5-5-5---5-5-----5-5-5-5---5-5-5-5---5-5-5-5----------|
d|-------------------------------------------------------------|
        + + + +   + +     + + + +   + + + +   + + + + 


  "Solo 1 tabbed by Seth Shadows"           


     |-----------------------------32nd notes.---------------------|
E|-------------------------------------------------------------------|
B|-------------------------------------------------------------------|
G|--/7-7-7-7-7-7-7-7-7-7-7-7-7-7-7-7-7-7-7-7-7-7-7-7-9-9-9-9-9-9-9-9-|
D|-------------------------------------------------------------------|
A|-------------------------------------------------------------------|
D|-------------------------------------------------------------------|

|------------------------32nd notes-------------------------------------------|
--------------------------------------------------------------------------------|
--------------------------------------------------------------------------------|
--10-10-10-10-10-10-10-10-12-12-12-12-12-12-12-12-13-13-13-13-13-13-13-13-13-13-|
--------------------------------------------------------------------------------|
--------------------------------------------------------------------------------|
--------------------------------------------------------------------------------|
 
    |------------------------3--------------------------------|
e|---------------------------------------------------------------|
b|-----10-13-10----10-13-10----10-13-10----10-13-10----10-13-10--|
g|--13----------13----------13----------13-----------------------|
d|---------------------------------------------------------------|
a|---------------------------------------------------------------|
d|---------------------------------------------------------------|

    |-------------------3--------------|
e|------------------------------------------------|
b|-----10-13-10----10-13-10----10-13-10--13bfull~-|
g|--13----------13----------13--------------------|
d|------------------------------------------------|
a|------------------------------------------------|
d|------------------------------------------------|

    |------------------------------------3-------------------------------|
e|--------------------------------------------------------------------------|
b|-----10-13-10----10-13-10----10-13-10---10-13-10----10-13-10----10-13-10--|
g|--13----------13----------13---------13----------13----------13-----------|
d|--------------------------------------------------------------------------|
a|--------------------------------------------------------------------------|
d|--------------------------------------------------------------------------|

   |----3----|
e|-----------------------|----------------------------------------|
b|----10-13-10--13bfull~-|--------11-10-11----------11-10-11------|
g|-13--------------------|-----------------12~---------------12~--|
d|-----------------------|---/12----------------/12---------------|
a|-----------------------|----------------------------------------|
d|-----------------------|----------------------------------------|


|---------------------10----10/17b(18)-|
|--11--------------------13------------|
|------12----------12------------------|
|---------------12---------------------|
|------------13------------------------|
|--------------------------------------|

-----------18p-15-----15--------15-|----------15---------15------------------|
------------------18b----18b(20)---|--18b(20)----18b(20)----------18p-15h-18-|
-----------------------------------|-----------------------------------------|
-----------------------------------|-----------------------------------------|
-----------------------------------|-----------------------------------------|
-----------------------------------|-----------------------------------------|

 
----------------------------------15-|------------------------------------------|
--15----------15--------15-----------|---------15--------15---------------------|
-----17b(19)=====17b=======17b=======|==17b=======17b-------17p-15-17p-15----15-|
-------------------------------------|------------------------------------17----|
-------------------------------------|------------------------------------------|
-------------------------------------|------------------------------------------|

   
-----------------------------------------------------|-----------------------|
-----------------------------------------------------|-----------------------|
--------------------------------------------17----17-|-----------------------|
--17p-15-17p-15----15------------15h-17--------------|-----------------------|
----------------18----17p-15h-17--------17-----17----|--17-------------------|
-----------------------------------------------------|------------/16--------|


e|-----------------------------14-17-------------------|
b|-----------------------14-15-------14-15-------------|
g|-----------------14-15-------------------14-15-------|
d|-----------14-15-------------------------------14-15-| 
a|-----14-17-------------------------------------------|
d|-----------------------------------------------------|

e|------------------------------------------13-15-13-15/18~-----|
b|------------------------------------12-13---------------------|
g|------------------------------12-13---------------------------|
d|------------------------12-13---------------------------------|
a|--slow slide /12--12-15---------------------------------------|
d|--------------------------------------------------------------|

-(18)\--17p-15----15---------------------------|
---------------18----18p-15-18p-15----15-------|
-----------------------------------14----14-16-|
-----------------------------------------------|
-----------------------------------------------|
-----------------------------------------------|

  |---------------------------------3-----------------------------------| 
--------------------------------------------------------------------------|
--------------------------------------------------------------------------|
-----14-16-17-16-14----14-16-17-16-14-------------------------------------|
--17----------------17----------------14-15-17-18-17-15-14-15-17-18-17-15-|
--------------------------------------------------------------------------|
--------------------------------------------------------------------------|

  |-------------------------------------3-------------------------------------|
--------------------------------------------------------------------------------|
--------------------------------------------------------------------------------|
--------------------------------------------------------------------------------|
-------------15---------------15------------15h-17-18p-17p-15------------15-----|
--15h-17h-19----19p-17-15h-17----19p-17h-19-------------------15h-17h-19----19p-|
--------------------------------------------------------------------------------|

|--------------------------------------3--------------------------------------|
--------------------------------------------------------------------------------|
-----------------------------------------------------------------------------15-|
------------------------------------------------16h-17p-16-14h-16h-17-16h-17----|
--15h-17-18p-17p-15----15h-17h-18-17p-15-17h-19---------------------------------|
--------------------19----------------------------------------------------------|
--------------------------------------------------------------------------------|

 
-----------------------15----15h-17--18----17--15h-17-|
--17p-15-17h-18-17h-18----18--------------------------|
------------------------------------------------------|
------------------------------------------------------|
------------------------------------------------------|
------------------------------------------------------|


  |----------------------------------3-----------------------------------|
-------17h-18p-17----17h-18p-17----17h-18p-17----17h-18p-17----17h-20p-17---|
--/20-------------20------------20------------20------------20--------------|
----------------------------------------------------------------------------|
----------------------------------------------------------------------------|
----------------------------------------------------------------------------|
----------------------------------------------------------------------------|


|------------------------------3-------------------------------------|     
-----17h-20p-17----17h-20p-17----17--------------------------------------------|
--20------------20------------20----20p-18-20p-18p-17-18p-17----17-------------|
-------------------------------------------------------------19----19p-17b(19)-|
-------------------------------------------------------------------------------|
-------------------------------------------------------------------------------|
-------------------------------------------------------------------------------|

        |------------------------------3---------------------------------|
--------------------------------------------------------------------------|
----------------------------------------------------15h-17h-18-15h-17h-18-|
-(19)-------------------------15h-17h-18-15h-17h-18-----------------------|
--------15h-17h-18-15h-17h-18---------------------------------------------|
--------------------------------------------------------------------------|
--------------------------------------------------------------------------|


|---------------------------------------3---------------------------------------|
--15h-17h-18-15h-17h-18\---------------------------------------------------------|
----------------------------------------------------------------------15h-17h-18-|
------------------------------------------------15h-17h-18-15h-17h-18------------|
--------------------------15h-17h-18-15h-17h-18----------------------------------|
---------------------------------------------------------------------------------|
---------------------------------------------------------------------------------|


|----------------------------------3------------------------------------|
--17----17----------15----15----------------------------------------------|
-----18----18-15-18----18----18-15-18-18----18----------17----17----------|
-----------------------------------------17----17----17----17----17----17-|
--------------------------------------------------19----------------19----|
--------------------------------------------------------------------------|
--------------------------------------------------------------------------|

        
------------------------||
------------------------||
-------------17b(19)----||
--17b(19)---------------||
------------------------||
------------------------||
|----------------------|
        x3?

    "Solo 2 tabbed by Solopractice"

 Second solo beginning

e|----------------------------------------------------|
b|-----5b6r5-6~----5b6r5-6~-----7b8r7-8~----7b8r7-8~--|
g|----------------------------------------------------|
d|--/7----------/7-----------/7----------/7-----------|
a|----------------------------------------------------|
d|----------------------------------------------------|

e|-------------------------------------------------------------|
b|------9b10r9b10~----11b12r11~--/15-14-15-14h15p14----14------|
g|--------------------------------------------------16----14b~-|
d|--/7-------------/7------------------------------------------|
a|-------------------------------------------------------------|
d|-------------------------------------------------------------|

e|---------------------------------------------------------------|
b|---------------------------------------------------------------|
g|--11----11~---/7---/14-12-11-------------14-12-11--------------|
d|-----14----------------------14-12-11-12----------14-12-11-12--|
a|---------------------------------------------------------------|
d|---------------------------------------------------------------|

 Each time he plays this even faster!
e|---------------------------------------------------------------------------|
b|---------------------------------------------------------------------------|
g|--14-12-11----------14-12-11----------14-12-11----------14-12-11-----------|
d|-----------14-12-11----------14-12-11----------14-12-11----------14-12-11--| (3x)
a|---------------------------------------------------------------------------|
d|---------------------------------------------------------------------------|

 These are 32 notes i believe.
e|-------------------------------------------------------14-12-11-----------|
b|-14-12-11----------14-12-11----------14-12-11-------------------14-12-11--|
g|----------14-12-11----------14-12-11----------14-12-11--------------------|
d|--------------------------------------------------------------------------|
a|--------------------------------------------------------------------------|
d|--------------------------------------------------------------------------|

e|-14-12-11----------14-12-11---------14-12-11----------14-12-11---------------|
b|----------14-12-11----------14-12-11---------14-12-11----------14-12-11------|
g|-----------------------------------------------------------------------------|
d|-----------------------------------------------------------------------------|
a|-----------------------------------------------------------------------------|
d|-----------------------------------------------------------------------------|

e|--14-12-11----------14-12-11----------15-14-12----------15-14-12-----------|
B|-----------14-12-11----------14-12-11----------15-14-12----------15-14-12--|
G|---------------------------------------------------------------------------|
D|---------------------------------------------------------------------------|
A|---------------------------------------------------------------------------|
D|---------------------------------------------------------------------------|

e|-15-14-12----------15-14-12----------15-14-12----------17-15-14------------|
B|----------15-14-12----------15-14-12----------15-14-12----------17-15-14---|
G|---------------------------------------------------------------------------|
D|---------------------------------------------------------------------------|
A|---------------------------------------------------------------------------|
D|---------------------------------------------------------------------------|

e|-17-15-14----------17-15-14-----------17-15-14----------17-15-14-----------|
B|----------17-15-14----------17-15-14-----------17-15-14----------17-15-14--|
G|---------------------------------------------------------------------------|
D|---------------------------------------------------------------------------|
A|---------------------------------------------------------------------------|
D|---------------------------------------------------------------------------|

e|-17-15-14----------15----------------------15---18brbfull~---------|
B|----------17-15-14----15----------------15-------------------------|
G|-------------------------15----------17----------------------------|
D|----------------------------17----17-------------------------------|
A|-------------------------------17----------------------------------|
D|-------------------------------------------------------------------|

e|-----15-14-15-14----------------------------------------------14bfull~-----|
B|-----------------15----------------------15----15-17----17-----------------|
G|-/15----------------14----------------14----14-------14----14--------------|
D|-----------------------16-17-16----16--------------------------------------|
A|--------------------------------17-----------------------------------------|
D|---------------------------------------------------------------------------|

e|-------------------|
B|-------------------|
G|------6~~~---------|
D|--/7-----------0---|
A|---------------0---|
D|---------------0---|

       A big thnx to awesome guitarist Seth Shadows for solo 1 :D
    
 First time collaboration for me xD
  
 _|lEGEND|_
|-3-|  - Triplets
| /  slide up
| \  slide down
| h  hammer-on
| p  pull-off
| ~  vibrato
| +  harmonic
| x  Mute note
===============================================================================
									


911Tabs.com - tabs search engine
More "Syns Solo Live" tabs @ 911Tabs

A Guide to Tab NotationGuitar TabsGuitar ResourcesGuitar TabsPrivacy PolicyGuitar TabsContact

Online Guitar Lessons

Avenged Sevenfold Guitar Tabs - Over 200,000 chords, guitar and bass tabs with video. Find tabs, video guitar lessons and more.