Music Guitar Tab, Tabs with MP3, ringtones, ringtone, concert tickets, guitar lessons, guitar tabs easy, guitar hero

Guitar Tabs Guitar Chords Bass Tabs
 Web Guitar Tabs
Guitar Lessons
 
Lyrics abcdefghijklmnopqrstuvwxyz # Top 100 Lyrics

Guitar Tabs
Guitar Tab






click on, click off


Tab for "Strength Of The World" - Avenged Sevenfold Rating 4Print Guitar Tabs
select alternative YouTube videos below...
Tweak the search term to refine the YouTube video results:         
Share on Facebook

Learn to play this song and others via online guitar lessons @ JamPlay.com!

 Gtr I (D A D G B E) - 'Synyster Gates {Lead Acoustic}'
Gtr II (D A D G B E) - 'Zacky Vengeace {Rhythm Acoustic}'
Gtr III (D A D G B E) - 'Synyster Gates {Lead Distortion}'
Gtr IV (D A D G B E) - 'Zacky Vengeance {Rhythm Distortion}'

Intro
  Gtr I


 E E E E E E E E   E  E E E E E E  a  E
|---1-----1-------|----1------1---3--3h5-3-------------|
|-----3-----3-----|------3------3----------------------|
|-------2-----2---|--------2---------------------------|
|-----------------|------------------------------------|
|-----------------|------------------------------------|
|-0---------------|-0----------------------------------|
|
| Gtr II
| W                 H.           E.      X  X   X   X
|-----------------|----------------------3-(3)-(3)-(3)-|
|-----------------|-------------------------3--(3)-(3)-|
|-----------------|-----------------------------4--(4)-|
|-----------------|---------------------------------5--|
|-----------------|------------------------------------|
|-----------------|------------------------------------|


    G/D
   E  E E E E E E E                                                        
|----3---------3----|                                                      
|------0---0--------|
|--------0---0------|
|-------------------|
|-------------------|
|-------------------|
 
G/D
   E  E E E E E E E   
|----3---------3----|
|------0---0--------|
|--------0---0------|
|-------------------|
|-------------------|



  W                  W
|-(3)---------------|-----------------|
|-(3)---------------|-----------------|
|-(4)---------------|-----------------|
|-(5)---------------|-----------------|
|--5----------------|-----------------|
|-------------------|-9---------------|

 E E E E E E E E   E  E E E E E E  a  E
|---1-----1-------|----1------1---3--3h5-3-------------|
|-----3-----3-----|------3------3----------------------|
|-------2-----2---|--------2---------------------------|
|-----------------|------------------------------------|
|-----------------|------------------------------------|
|-0---------------|-0----------------------------------|
 
|
| W                 H.           E.      X  X   X   X
|-----------------|----------------------3-(3)-(3)-(3)-|
|-----------------|-------------------------3--(3)-(3)-|
|-----------------|-----------------------------4--(4)-|
|-----------------|---------------------------------5--|
|-----------------|------------------------------------|
|-----------------|------------------------------------|
  G/D
   E  E E E E E E E                                                        
|----3---------3----|                                                      
|------0---0--------|
|--------0---0------|
|-------------------|
|-------------------|
|-------------------|
 
G/D
   E  E E E E E E E   
|----3---------3----|
|------0---0--------|
|--------0---0------|
|-------------------|
|-------------------|

|  W                  W
|-(3)---------------|------------------|
|-(3)---------------|------------------|
|-(4)---------------|------------------|
|-(5)---------------|------------------|
|--5----------------|------------------|
|-------------------|-9----------------|


  Dm
  E E E E E E E E    E  E E E E E  E  a  E
|-----------------|--------------------------------------|
|---6-----6-------|-----6-----6----8--8S10---------------|
|-----7-----7-----|-------7-----7------------------------|
|-------7-----7---|---------7----------------------------|
|---------------5-|--------------------------------------|
|-0---------------|--0-----------------------------------|
|
| W                 +H.           +E.      X  X   X   X
|-----------------|------------------------3-(3)-(3)-(3)-|
|-----------------|---------------------------3--(3)-(3)-|
|-----------------|-------------------------------4--(4)-|
|-----------------|-----------------------------------5--|
|-----------------|--------------------------------------|
|-0---------------|-(0)-----------(0)--------------------|


  G/D
   E  E E E E E E E   E  E E E E E E  E
|-------------------|--------------------|
|--8------------8---|-8------------8-----|
|-----7-------7---7-|----7-------7----7--|
|-------5---5-------|------5---5---------|
|---------5---------|--------5-----------|
|-------------------|--------------------|
|
|  W                  H.           Q
|-(3)---------------|--------------------|
|-(3)---------------|--------------------|
|-(4)---------------|--------------------|
|-(5)---------------|--------------------|
|--5----------------|--------------------|
|-------------------|-9------------3\----|


  Dm
  E E E E E E E E    E  E E E E E  E  a  E
|-----------------|--------------------------------------|
|---6-----6-------|-----6-----6----8--8S10---------------|
|-----7-----7-----|-------7-----7------------------------|
|-------7-----7---|---------7----------------------------|
|---------------5-|--------------------------------------|
|-0---------------|--0-----------------------------------|
|
| W                 +H.           +E.      X  X   X   X
|-----------------|------------------------3-(3)-(3)-(3)-|
|-----------------|---------------------------3--(3)-(3)-|
|-----------------|-------------------------------4--(4)-|
|-----------------|-----------------------------------5--|
|-----------------|--------------------------------------|
|-0---------------|-(0)-----------(0)--------------------|


  G/D
   E  E E E E E E E    E  E E E E E E E
|--------------------|------------------|
|--8------------8----|-8----------------|
|-----7-------7---7--|----7-------7-----|
|-------5---5--------|------5---5-------|
|---------5----------|--------5-----0-2-|
|--------------------|------------------|
|
|  W                   H.           Q
|-(3)----------------|------------------|
|-(3)----------------|------------------|
|-(4)----------------|--------------7S==|
|-(5)----------------|------------------|
|--5-----------------|------------------|
|--------------------|-9----------------|


  G5                G5/F               G5                G5/F
  E E E E E E E E   E  E E E E E E E   E E E E E E E E   E E E E E E E E
|---------0-------|----------0-------|---------0-------|---------0-------|
|-----3-----3---3-|------3-----3---3-|-----3-----3---3-|-----3-----3---3-|
|---0---0-----0---|----0---0-----0---|---0---0-----0---|---0---0-----0---|
|-----------------|------------------|-----------------|-----------------|
|-3---------------|-1----------------|-3---------------|-1---------------|
|-----------------|------------------|-----------------|-----------------|
|
| W                 H.           Q     W                 W
|-----------------|------------------|-----------------|-----------------|
|-----------------|------------------|-----------------|-----------------|
|-9---------------|--------------7S==|=9---------------|-----------------|
|-----------------|------------------|-----------------|-----------------|
|-----------------|------------------|-----------------|-----------------|
|-----------------|------------------|-----------------|-----------------|


  Gm        Dm          Gm
  E E E E   E E E  E    S S S S S S S S S S S S S S E
|-------6\------------|-------6---------------6-------|
|---8-----------8-10\-|-----8---8-----------8---8-----|
|-----7-------7-------|---7-------7---7---7-------7---|
|-5-------------------|-5-----------5---5-----------5-|
|-----------8---------|-------------------------------|
|---------------------|-------------------------------|


  Gm       Dm          Gm
  E E E E  E E E  E    S S S S S S S S S S S S S S E
|-------6\-----------|-------6---------------6-------|
|---8----------8-10\-|-----8---8-----------8---8-----|
|-----7------7-------|---7-------7---7---7-------7---|
|-5------------------|-5-----------5---5-----------5-|
|----------8---------|-------------------------------|
|--------------------|-------------------------------|


  Eb              F
  S S S S S S S S S S S  S S S S  S
|-----------------------------------|
|-----6-8-----6-8-----8-10-----8-10-|
|-----------------------------------|
|---5-------5-------7--------7------|
|-6-------6-------8--------8--------|
|-----------------------------------|


  Gm
   S S  S  S  +S   E  S  S S  S  S  +S   E  S
|---------------------------------------------|
|------10-11-(11)------------10-11-(11)-------|
|---------------------------------------------|
|----8----------------8----8----------------8-|
|-10--------------10----10--------------10----|
|---------------------------------------------|


                                                           H=H
  Eb              F                   Gm
  S S S S S S S S S S S  S S S S  S    S S  S S +S  S  S S H
|-----------------------------------|---------------------------|
|-----6-8-----6-8-----8-10-----8-10-|----------------------8----|
|-----------------------------------|---------7-(7)------7------|
|---5-------5-------7--------7------|----9----------9-----------|
|-6-------6-------8--------8--------|-10---10---------10--------|
|-----------------------------------|---------------------------|
|
| Gtr II
| H               H                    W
|-----------------------------------|---------------------------|
|-----------------------------------|---------------------------|
|-----------------------------------|---------------------------|
|-----------------------------------|---------------------------|
|-----------------------------------|---------------------------|
|-1---------------3-----------------|--5------------------------|


    Q=158
    D5
    Gtr III
    E E E E +E  E E E   +E  E E E +E  E E E
||--------------------|---------------------------------|
||o-------------------|---------------------------------|
||--------------------|---------------------------------|
||------7---------5---|---------------------------------|
||o-------8-(8)-----7-|-(7)---7-8-(8)-7-5---------------|
||--0-0---------0-----|-----0-------------8-------------|
|
|   Gtr IV
|   W                   +W
||--------------------|---------------------------------|
||o-------------------|---------------------------------|
||--------------------|---------------------------------|
||--0-----------------|-(0)-----------------------------|
||o-0-----------------|-(0)-----------------------------|
||--0-----------------|-(0)-----------------------------|
|
|   Gtr II
|   W                    H.             E T  T   T   T
||--------------------|-------------------3-(3)-(3)-(3)-|
||o-------------------|----------------------3--(3)-(3)-|
||--------------------|--------------------------4--(4)-|
||--------------------|------------------------------5--|
||o-------------------|---------------------------------|
||--------------------|---------------------------------|


  G/D
   W           +W
|------------|---------||
|------------|--------o||
|------------|---------||
|------------|---------||
|--5---------|-(5)----o||
|--5---------|-(5)-----||
|
|  W           +W
|------------|---------||
|------------|--------o||
|------------|---------||
|--5---------|-(5)-----||
|--5---------|-(5)----o||
|--5---------|-(5)-----||
|
|  W           +W
|-(3)--------|-(3)-----||
|-(3)--------|-(3)----o||
|-(4)--------|-(4)-----||
|-(5)--------|-(5)-----||
|--5---------|-(5)----o||
|------------|---------||


  D5
  E E E E +E  E E E   +E  E E E +E  E E E
|-------------------|---------------------------------|
|-------------------|---------------------------------|
|-------------------|---------------------------------|
|-----7---------5---|---------------------------------|
|-------8-(8)-----7-|-(7)---7-8-(8)-7-5---------------|
|-0-0---------0-----|-----0-------------8-------------|
|
| PM---------------------------------------------------
| E E E E  E  E E E    E  E E E  E  E E E
|-------------------|---------------------------------|
|-------------------|---------------------------------|
|-------------------|---------------------------------|
|-------------------|---------------------------------|
|-0-0-0-0--0--0-0-0-|--0--0-0-0--0--0-0-0-------------|
|-0-0-0-0--0--0-0-0-|--0--0-0-0--0--0-0-0-------------|
|
| W                    H.             E T  T   T   T
|-------------------|-------------------3-(3)-(3)-(3)-|
|-------------------|----------------------3--(3)-(3)-|
|-------------------|--------------------------4--(4)-|
|-------------------|------------------------------5--|
|-------------------|---------------------------------|
|-------------------|---------------------------------|


  G/D
   W                  +W
|-------------------|--------------------|
|-------------------|--------------------|
|-------------------|--------------------|
|-------------------|--------------------|
|--5----------------|-(5)----------------|
|--5----------------|-(5)----------------|
|
|-------------------------------------|
|  E  E E E E E E E    E  E E E E E E E
|-------------------|--------------------|
|-------------------|--------------------|
|-------------------|--------------------|
|-------------------|--------------------|
|--5--5-5-5-5-5-5-5-|--5--5-5-5-5-5-5-5--|
|--5--5-5-5-5-5-5-5-|--5--5-5-5-5-5-5-5--|
|
|  W                  +W
|-(3)---------------|-(3)----------------|
|-(3)---------------|-(3)----------------|
|-(4)---------------|-(4)----------------|
|-(5)---------------|-(5)----------------|
|--5----------------|-(5)----------------|
|-------------------|--------------------|


  D5
  E E E E +E  E E E   +E  E E E +E  E E E
|-------------------|---------------------------------|
|-------------------|---------------------------------|
|-------------------|---------------------------------|
|-----7---------5---|---------------------------------|
|-------8-(8)-----7-|-(7)---7-8-(8)-7-5---------------|
|-0-0---------0-----|-----0-------------8-------------|
|
| PM---------------------------------------------------
| E E E E  E  E E E    E  E E E  E  E E E
|-------------------|---------------------------------|
|-------------------|---------------------------------|
|-------------------|---------------------------------|
|-------------------|---------------------------------|
|-0-0-0-0--0--0-0-0-|--0--0-0-0--0--0-0-0-------------|
|-0-0-0-0--0--0-0-0-|--0--0-0-0--0--0-0-0-------------|
|
| W                    H.             E T  T   T   T
|-------------------|-------------------3-(3)-(3)-(3)-|
|-------------------|----------------------3--(3)-(3)-|
|-------------------|--------------------------4--(4)-|
|-------------------|------------------------------5--|
|-------------------|---------------------------------|
|-------------------|---------------------------------|


  G/D
                          PM--|
   W                  +E  E E E E E E E
|-------------------|--------------------|
|-------------------|--------------------|
|-------------------|--------------------|
|-------------------|-----------5-5-5-5--|
|--5----------------|-(5)-5-5-5-5-5-5-5--|
|--5----------------|-(5)-5-5-5-5-5-5-5--|
|
|-------------------------------------|
|  E  E E E E E E E    E  E E E E E E E
|-------------------|--------------------|
|-------------------|--------------------|
|-------------------|--------------------|
|-------------------|--------------------|
|--5--5-5-5-5-5-5-5-|--5--5-5-5-5-5-5-5--|
|--5--5-5-5-5-5-5-5-|--5--5-5-5-5-5-5-5--|
|
|  W                  +W
|-(3)---------------|-(3)----------------|
|-(3)---------------|-(3)----------------|
|-(4)---------------|-(4)----------------|
|-(5)---------------|-(5)----------------|
|--5----------------|-(5)----------------|
|-------------------|--------------------|


    N.C.
    Gtrs III, IV
    E E E E +E  E E E   +E  E E E +E  E E E
||--------------------|---------------------|
||o-------------------|---------------------|
||--------------------|---------------------|
||------7---------5---|---------------------|
||o-------8-(8)-----7-|-(7)---7-8-(8)-7-5---|
||--0-0---------0-----|-----0-------------8-|


  E E E E +E  E E E   +E  E E E +E  E E E
|-------------------|----------------------|
|-------------------|----------------------|
|-------------------|----------------------|
|-------------------|----------------------|
|-------5-(5)-----7-|-(7)-----8-(8)-7-5----|
|-5-7-8-------8-7---|-----7-8-----------8--|


  D5                 Eb5
     PM------------|   PM|   PM  PM
  Q  E E E E E E   E E E E E E E E
|----------------|------------------||
|----------------|-----------------o||
|----------------|------------------||
|-0--------------|---1-----1---1----||
|-0--0-0-0-0-0-0-|---1-----1---1---o||
|-0--0-0-0-0-0-0-|-0-1-0-0-1-0-1-0--||


   Verse
    N.C.
    E E E E +E  E E E   +E  E E E +E  E E E
||--------------------|---------------------|
||o-------------------|---------------------|
||--------------------|---------------------|
||------7---------5---|---------------------|
||o-------8-(8)-----7-|-(7)---7-8-(8)-7-5---|
||--0-0---------0-----|-----0-------------8-|


  E E E E +E  E E E   +E  E E E +E  E E E
|-------------------|----------------------|
|-------------------|----------------------|
|-------------------|----------------------|
|-------------------|----------------------|
|-------5-(5)-----7-|-(7)-----8-(8)-7-5----|
|-5-7-8-------8-7---|-----7-8-----------8--|


  D5                 Eb5
     PM------------|   PM|   PM  PM
  Q  E E E E E E   E E E E E E E E
|----------------|------------------||
|----------------|-----------------o||
|----------------|------------------||
|-0--------------|---1-----1---1----||
|-0--0-0-0-0-0-0-|---1-----1---1---o||
|-0--0-0-0-0-0-0-|-0-1-0-0-1-0-1-0--||


   Pre-Chorus
    D5                                    F5E5Eb5   F5E5Eb5
    PM----|            PM----|                                PM----------|
    S S S S E E H      S S S S E E H      E E E E E E E E   E E E E E E E E
||-------------------|------------------|-----------------|-------------------||
||o------------------|------------------|-----------------|------------------o||
||-------------------|------------------|-----------------|-------------------||
||----------0--------|---------0--------|-3-2-1-----3-2-1-|-------------------||
||o-0-0-0-0-0--------|-0-0-0-0-0--------|-3-2-1-----3-2-1-|---1-1-1-1-1-1-1--o||
||--0-0-0-0-0--------|-0-0-0-0-0--------|-3-2-1-----3-2-1-|---1-1-1-1-1-1-1---||


  N.C.
  Gtr III
  E E E E +E  E E E   E E E E +E  E E E
|-------------------|-------------------|
|-------------------|-------------------|
|-------------------|-------------------|
|-7-5-----------5-7-|-7-5-----------5-7-|
|-----8-5-(5)-8-----|-----8-5-(5)-8-----|
|-------------------|-------------------|
|
| Gtr IV
| E E E E +E  E E E   E E E E +E  E E E
|-------------------|-------------------|
|-------------------|-------------------|
|-------------------|-------------------|
|-------------------|-------------------|
|-8-7-5-------5-7-8-|-8-7-5-------5-7-8-|
|-------8-(8)-------|-------8-(8)-------|


   E E  E  E  +E   E E  E    E E  E  E  +E   E E  E
|-------------------------|-------------------------|
|-------------------------|-------------------------|
|-------------------------|--9----------------------|
|-10-7---------------7-10-|----7---------------7-10-|
|------10--7--(7)-10------|------10--7--(7)-10------|
|-------------------------|-------------------------|
|
|  E E  E  E  +E   E E  E    E E  E  E  +E   E E  E
|-------------------------|-------------------------|
|-------------------------|-------------------------|
|-------------------------|-------------------------|
|-------------------------|-------------------------|
|-10-8--7----------7-8-10-|-10-8--7----------7-8-10-|
|---------10-(10)---------|---------10-(10)---------|


  D
  W           W
|----------|-------|
|----------|-------|
|----------|-------|
|-4--------|-/7----|
|----------|-------|
|----------|-------|
|
| W           W
|----------|-------|
|----------|-------|
|----------|-------|
|----------|-------|
|-5--------|-/9----|
|----------|-------|


   Chorus
    D5
    PM----|
    |-3-|
    Q Q Q Q  Q    +W
||--------------|------------------|
||o-------------|------------------|
||-----------7--|-(7)--------------|
||-----------7--|-(7)--------------|
||o-0-0-0-0--5--|-(5)--------------|
||--0-0-0-0-----|------------------|
|
|   PM----|
|   |-3-|
|   Q Q Q Q  Q    +Q   E E E E E E
||--------------|------------------|
||o-------------|------------------|
||-----------7--|-(7)--7-7-7-7-7-7-|
||--------------|------------------|
||o-0-0-0-0--5--|-(5)--5-5-5-5-5-5-|
||--0-0-0-0-----|------------------|


  G5
    W                      +W
|------------------------|--------------------------|
|------------------------|--------------------------|
|------------------------|--------------------------|
|---5--------------------|-(5)----------------------|
|---5--------------------|-(5)----------------------|
|---5--------------------|-(5)----------------------|
|
|   Q   E  E  E  E  E  E    E   E  E  E  E  E  E  E
|------------------------|--------------------------|
|------------------------|--------------------------|
|-/12--12-12-12-12-12-12-|-12--12-12-12-12-12-12-12-|
|------------------------|--------------------------|
|-/10--10-10-10-10-10-10-|-10--10-10-10-10-10-10-10-|
|------------------------|--------------------------|


  C5                               F5               A5
  PM----|
  |-3-|
  Q Q Q Q  Q    +W                 W                H        E E Q
|-------------|------------------|----------------|-------------------||
|-------------|------------------|----------------|------------------o||
|----------5--|-(5)--------------|----------------|-2-------/6-6-6----||
|-5-5-5-5--5--|-(5)--------------|-3--------------|-2-----------------||
|-3-3-3-3--3--|-(3)--------------|-3--------------|-0-------/4-4-4---o||
|-------------|------------------|-3--------------|-------------------||
|
| PM----|
| |-3-|
| Q Q Q Q  Q    +Q   E E E E E E   Q  E E E E E E   E E E E  E E Q
|-------------|------------------|----------------|-------------------||
|-------------|------------------|-6--6-6-6-6-6-6-|------------------o||
|----------5--|-(5)--5-5-5-5-5-5-|----------------|-5-5-5-5-/9-9-9----||
|-5-5-5-5-----|------------------|-3--3-3-3-3-3-3-|-------------------||
|-3-3-3-3--3--|-(3)--3-3-3-3-3-3-|----------------|-3-3-3-3-/7-7-7---o||
|-------------|------------------|----------------|-------------------||


  Dm                C       F/C       Bb
  Gtr I
    Q.   E Q  E E    Q  E E  Q  E E   Q.  E Q  Q    +E  E Q  Q  E E
|---1----1-1--x-x-|--0--x-x--1--x-x-|-1---1-x--1--|-(1)-1-x--1--1-1-|
|---3----3-3--x-x-|--1--x-x--1--x-x-|-3---3-x--3--|-(3)-3-x--3--3-3-|
|---2----2-2--x-x-|--0--x-x--2--x-x-|-3---3-x--3--|-(3)-3-x--3--3-3-|
|---0----0-0--x-x-|--2--x-x--3--x-x-|-3---3-x--3--|-(3)-3-x--3--3-3-|
|-----------------|--3--x-x--3--x-x-|-1---1-x--1--|-(1)-1-x--1--1-1-|
|-----------------|-----------------|-------------|-----------------|
|
| Gtr II
|   W                H       H        W              W
|-/10-------------|-12-------8------|-6S==========|=13--------------|
|-----------------|-----------------|-------------|-----------------|
|-/10-------------|--9------10------|-7S==========|=15--------------|
|-----------------|-----------------|-------------|-----------------|
|-----------------|-----------------|-------------|-----------------|
|-----------------|-----------------|-------------|-----------------|


  Gm              F/C             C        Bb
   Q.   E Q  Q     Q.   E Q  Q    Q.  E Q  Q    +W
|--3----3-3--x--|--1----1-1--x--|-0---x-0--1--|-(1)----|
|--3----3-3--x--|--1----1-1--x--|-1---x-1--3--|-(3)----|
|--3----3-3--x--|--2----2-2--x--|-0---x-0--3--|-(3)----|
|--5----5-5--x--|--3----3-3--x--|-2---x-2--3--|-(3)----|
|--5----5-5--x--|--3----3-3--x--|-3---x-3--1--|-(1)----|
|--5----5-5--x--|---------------|-------------|--------|
|
|  W               W              H.       Q    +W
|-10------------|-13------------|-8S=======6--|-(6)----|
|---------------|---------------|-------------|--------|
|--7------------|-14------------|-9S=======7--|-(7)----|
|---------------|---------------|-------------|--------|
|---------------|---------------|-------------|--------|
|---------------|---------------|-------------|--------|


 Breakdown
  D5                      G5
  Gtrs III, IV
  W          +W           W          +W
|----------|------------|----------|--------|
|----------|------------|----------|--------|
|----------|------------|----------|--------|
|-0--------|-(0)--------|-5--------|-(5)----|
|-0--------|-(0)--------|-5--------|-(5)----|
|-0--------|-(0)--------|-5--------|-(5)----|


  Bb5        C5
  W          W
|----------|------|
|----------|------|
|-3--------|-5----|
|-3--------|-5----|
|-1--------|-3----|
|----------|------|


   Verse
    N.C.
    E E E E +E  E E E   +E  E E E +E  E E E
||--------------------|---------------------|
||o-------------------|---------------------|
||--------------------|---------------------|
||------7---------5---|---------------------|
||o-------8-(8)-----7-|-(7)---7-8-(8)-7-5---|
||--0-0---------0-----|-----0-------------8-|


  E E E E +E  E E E   +E  E E E +E  E E E
|-------------------|----------------------|
|-------------------|----------------------|
|-------------------|----------------------|
|-------------------|----------------------|
|-------5-(5)-----7-|-(7)-----8-(8)-7-5----|
|-5-7-8-------8-7---|-----7-8-----------8--|


  D5                 Eb5
     PM------------|   PM|   PM  PM
  Q  E E E E E E   E E E E E E E E
|----------------|------------------||
|----------------|-----------------o||
|----------------|------------------||
|-0--------------|---1-----1---1----||
|-0--0-0-0-0-0-0-|---1-----1---1---o||
|-0--0-0-0-0-0-0-|-0-1-0-0-1-0-1-0--||


   Pre-Chorus
    D5                 D5                 F5E5Eb5   F5E5Eb5   Eb5
    PM----|            PM----|                                PM----------|
    S S S S E E H      S S S S E E H      E E E E E E E E   E E E E E E E E
||-------------------|------------------|-----------------|-------------------||
||o------------------|------------------|-----------------|------------------o||
||-------------------|------------------|-----------------|-------------------||
||----------0--------|---------0--------|-3-2-1-----3-2-1-|-------------------||
||o-0-0-0-0-0--------|-0-0-0-0-0--------|-3-2-1-----3-2-1-|---1-1-1-1-1-1-1--o||
||--0-0-0-0-0--------|-0-0-0-0-0--------|-3-2-1-----3-2-1-|---1-1-1-1-1-1-1---||


    N.C.
    E E E E +E  E E E   +E  E E E +E  E E E
||--------------------|---------------------|
||o-------------------|---------------------|
||--------------------|---------------------|
||------7---------5---|---------------------|
||o-------8-(8)-----7-|-(7)---7-8-(8)-7-5---|
||--0-0---------0-----|-----0-------------8-|


  E E E E +E  E E E   +E  E E E +E  E E E
|-------------------|-----------------------||
|-------------------|----------------------o||
|-------------------|-----------------------||
|-------------------|-----------------------||
|-------5-(5)-----7-|-(7)-----8-(8)-7-5----o||
|-5-7-8-------8-7---|-----7-8-----------8---||


  N.C.
  Gtr III
  E E E E +E  E E E   E E E E +E  E E E
|-------------------|-------------------|
|-------------------|-------------------|
|-------------------|-------------------|
|-7-5-----------5-7-|-7-5-----------5-7-|
|-----8-5-(5)-8-----|-----8-5-(5)-8-----|
|-------------------|-------------------|
|
| Gtr IV
| E E E E +E  E E E   E E E E +E  E E E
|-------------------|-------------------|
|-------------------|-------------------|
|-------------------|-------------------|
|-------------------|-------------------|
|-8-7-5-------5-7-8-|-8-7-5-------5-7-8-|
|-------8-(8)-------|-------8-(8)-------|


   E E  E  E  +E   E E  E    E E  E  E  +E   E E  E
|-------------------------|-------------------------|
|-------------------------|-------------------------|
|-------------------------|--9----------------------|
|-10-7---------------7-10-|----7---------------7-10-|
|------10--7--(7)-10------|------10--7--(7)-10------|
|-------------------------|-------------------------|
|
|  E E  E  E  +E   E E  E    E E  E  E  +E   E E  E
|-------------------------|-------------------------|
|-------------------------|-------------------------|
|-------------------------|-------------------------|
|-------------------------|-------------------------|
|-10-8--7----------7-8-10-|-10-8--7----------7-8-10-|
|---------10-(10)---------|---------10-(10)---------|


  D
  W           W
|----------|-------|
|----------|-------|
|----------|-------|
|-4--------|-/7----|
|----------|-------|
|----------|-------|
|
| W           W
|----------|-------|
|----------|-------|
|----------|-------|
|----------|-------|
|-5--------|-/9----|
|----------|-------|


   Chorus
    D5
    PM----|
    |-3-|
    Q Q Q Q  Q    +W
||--------------|------------------|
||o-------------|------------------|
||-----------7--|-(7)--------------|
||-----------7--|-(7)--------------|
||o-0-0-0-0--5--|-(5)--------------|
||--0-0-0-0-----|------------------|
|
|   PM----|
|   |-3-|
|   Q Q Q Q  Q    +Q   E E E E E E
||--------------|------------------|
||o-------------|------------------|
||-----------7--|-(7)--7-7-7-7-7-7-|
||--------------|------------------|
||o-0-0-0-0--5--|-(5)--5-5-5-5-5-5-|
||--0-0-0-0-----|------------------|


  G5
    W                      +W
|------------------------|--------------------------|
|------------------------|--------------------------|
|------------------------|--------------------------|
|---5--------------------|-(5)----------------------|
|---5--------------------|-(5)----------------------|
|---5--------------------|-(5)----------------------|
|
|   Q   E  E  E  E  E  E    E   E  E  E  E  E  E  E
|------------------------|--------------------------|
|------------------------|--------------------------|
|-/12--12-12-12-12-12-12-|-12--12-12-12-12-12-12-12-|
|------------------------|--------------------------|
|-/10--10-10-10-10-10-10-|-10--10-10-10-10-10-10-10-|
|------------------------|--------------------------|


  C5                               F5               A5
  PM----|
  |-3-|
  Q Q Q Q  Q    +W                 W                H        E E Q
|-------------|------------------|----------------|-------------------||
|-------------|------------------|----------------|------------------o||
|----------5--|-(5)--------------|----------------|-2-------/6-6-6----||
|-5-5-5-5--5--|-(5)--------------|-3--------------|-2-----------------||
|-3-3-3-3--3--|-(3)--------------|-3--------------|-0-------/4-4-4---o||
|-------------|------------------|-3--------------|-------------------||
|
| PM----|
| |-3-|
| Q Q Q Q  Q    +Q   E E E E E E   Q  E E E E E E   E E E E  E E Q
|-------------|------------------|----------------|-------------------||
|-------------|------------------|-6--6-6-6-6-6-6-|------------------o||
|----------5--|-(5)--5-5-5-5-5-5-|----------------|-5-5-5-5-/9-9-9----||
|-5-5-5-5-----|------------------|-3--3-3-3-3-3-3-|-------------------||
|-3-3-3-3--3--|-(3)--3-3-3-3-3-3-|----------------|-3-3-3-3-/7-7-7---o||
|-------------|------------------|----------------|-------------------||


  Dm                C       F/C       Bb
  Gtr I
    Q.   E Q  E E    Q  E E  Q  E E   Q.  E Q  Q    +E  E Q  Q  E E
|---1----1-1--x-x-|--0--x-x--1--x-x-|-1---1-x--1--|-(1)-1-x--1--1-1-|
|---3----3-3--x-x-|--1--x-x--1--x-x-|-3---3-x--3--|-(3)-3-x--3--3-3-|
|---2----2-2--x-x-|--0--x-x--2--x-x-|-3---3-x--3--|-(3)-3-x--3--3-3-|
|---0----0-0--x-x-|--2--x-x--3--x-x-|-3---3-x--3--|-(3)-3-x--3--3-3-|
|-----------------|--3--x-x--3--x-x-|-1---1-x--1--|-(1)-1-x--1--1-1-|
|-----------------|-----------------|-------------|-----------------|
|
| Gtr II
|   W                H       H        W              W
|-/10-------------|-12-------8------|-6S==========|=13--------------|
|-----------------|-----------------|-------------|-----------------|
|-/10-------------|--9------10------|-7S==========|=15--------------|
|-----------------|-----------------|-------------|-----------------|
|-----------------|-----------------|-------------|-----------------|
|-----------------|-----------------|-------------|-----------------|


  Gm              F/C             C        Bb
   Q.   E Q  Q     Q.   E Q  Q    Q.  E Q  Q    +W
|--3----3-3--x--|--1----1-1--x--|-0---x-0--1--|-(1)----|
|--3----3-3--x--|--1----1-1--x--|-1---x-1--3--|-(3)----|
|--3----3-3--x--|--2----2-2--x--|-0---x-0--3--|-(3)----|
|--5----5-5--x--|--3----3-3--x--|-2---x-2--3--|-(3)----|
|--5----5-5--x--|--3----3-3--x--|-3---x-3--1--|-(1)----|
|--5----5-5--x--|---------------|-------------|--------|
|
|  W               W              H.       Q    +W
|-10------------|-13------------|-8S=======6--|-(6)----|
|---------------|---------------|-------------|--------|
|--7------------|-14------------|-9S=======7--|-(7)----|
|---------------|---------------|-------------|--------|
|---------------|---------------|-------------|--------|
|---------------|---------------|-------------|--------|


 Breakdown
  D5                      G5
  Gtrs III, IV
  W          +W           W          +W
|----------|------------|----------|--------|
|----------|------------|----------|--------|
|----------|------------|----------|--------|
|-0--------|-(0)--------|-5--------|-(5)----|
|-0--------|-(0)--------|-5--------|-(5)----|
|-0--------|-(0)--------|-5--------|-(5)----|


  Bb5        C5
  W          W
|----------|------|
|----------|------|
|-3--------|-5----|
|-3--------|-5----|
|-1--------|-3----|
|----------|------|


  Eb5        F5          G5
  W           W           Q   Q.    E  E  E    Q   Q.    E  E  E
|----------|-----------|--------------------|--------------------|
|----------|-----------|--------------------|--------------------|
|-8--------|-10--------|-12--12----12-12-12-|-12--12----12-12-12-|
|-8--------|-10--------|-12--12----12-12-12-|-12--12----12-12-12-|
|-6--------|--8--------|-10--10----10-10-10-|-10--10----10-10-10-|
|----------|-----------|--------------------|--------------------|


  G5
   Q   Q.    E  E  E    Q   Q.    E  E  E
|--------------------|--------------------|
|--------------------|--------------------|
|-12--12----12-12-12-|-12--12----12-12-12-|
|-12--12----12-12-12-|-12--12----12-12-12-|
|-10--10----10-10-10-|-10--10----10-10-10-|
|--------------------|--------------------|


  Eb5             F5                  G5
  Gtr III
  Q  Q   Q   Q     Q   Q   Q   E  E   H     +E  E E S  S    W
|---------------|--------------8s10-|-7-----(7)---7-7--8-|-10------------|
|-8----------8--|-10------10---8s10-|-8-----(8)-8-8-8-10-|-12------------|
|-8--8-------8--|-10--10--10--------|-----------7--------|---------------|
|----8---8------|-----10------------|--------------------|---------------|
|-------10------|-------------------|--------------------|---------------|
|---------------|-------------------|--------------------|---------------|
| Q  Q   Q   Q     Q   Q   Q   E  E   H     +E  E E S  S    W
|
| Gtr IV
| Q  Q   E E Q     Q   Q   E E Q      Q  Q   E  E Q         Q  Q  E E Q
|---------------|-------------------|--------------------|---------------|
|---------------|-------------------|--------------------|---------------|
|---------------|-------------------|--------------------|---------------|
|-1--1---1-1-1--|--3---3---3-3-3----|-5--5---5--5-5------|--5--5--5-5-5--|
|-1--1---1-1-1--|--3---3---3-3-3----|-5--5---5--5-5------|--5--5--5-5-5--|
|-1--1---1-1-1--|--3---3---3-3-3----|-5--5---5--5-5------|--5--5--5-5-5--|


  Eb5                F5
   Q   Q   Q    Q     Q   Q   Q    Q
|-15-----------15--|-13------15---17--|
|--x--16--------x--|--x--15---x----x--|
|-15--15--15---15--|-17---x--17---17--|
|---------17-------|-----17-----------|
|------------------|------------------|
|------------------|------------------|
|
|  Q   Q   E E  Q     Q   Q   E E  Q
|------------------|------------------|
|------------------|------------------|
|------------------|------------------|
|--1---1---1-1--1--|--3---3---3-3--3--|
|--1---1---1-1--1--|--3---3---3-3--3--|
|--1---1---1-1--1--|--3---3---3-3--3--|


  G5                        G5
   H      +E   E  E  S  S    W
|-19-----(19)----19-19-20-|-22------------|
|--x------(x)-20-20-20-22-|-24------------|
|-19-----(19)-19----------|---------------|
|-------------------------|---------------|
|-------------------------|---------------|
|-------------------------|---------------|
|
|  Q  Q    E   E  Q          Q  Q  E E Q
|-------------------------|---------------|
|-------------------------|---------------|
|-------------------------|---------------|
|--5--5----5---5--5-------|--5--5--5-5-5--|
|--5--5----5---5--5-------|--5--5--5-5-5--|
|--5--5----5---5--5-------|--5--5--5-5-5--|


 Guitar Solo
  E5
  Gtr III
  >
  W                   +W
|-------------------|---------------------|
|-------------------|---------------------|
|-------------------|---------------------|
|-2-----------------|-(2)-----------------|
|-2-----------------|-(2)-----------------|
|-2-----------------|-(2)-----------------|
|
| Gtr I
| E E E E +E  E E E    E  E E E +E  E E E
|-------0-(0)-------|---------0-(0)-------|
|-----0-------0-----|-------0-------0-----|
|---4-----------4---|-----4-----------4---|
|-2---------------2-|--3----------------3-|
|-------------------|---------------------|
|-------------------|---------------------|
|
| Gtr II
| W                    Q    E E  Q    Q
|-------------------|---------------------|
|-------------------|---------------------|
|-------------------|---------4--5----5---|
|-------------------|---------------------|
|-------------------|---------------------|
|-------------------|---------------------|


  +W                    +H.             +E   S  S
|---------------------|---------------------------|
|---------------------|---------------------12-12-|
|---------------------|---------------------------|
|-(2)-----------------|-(2)-------------(2)-------|
|-(2)-----------------|-(2)-------------(2)-------|
|-(2)-----------------|-(2)-------------(2)-------|
|
|  E  E E E +E  E E E    E  E E E +E  E  E   E
|---------0-(0)-------|---------0-(0)-------------|
|-------0-------0-----|-------0-------0-----------|
|-----4-----------4---|-----4------------4--------|
|--2----------------2-|--3-------------------3----|
|---------------------|---------------------------|
|---------------------|---------------------------|
|
|  W                    +Q.     E  Q     Q
|---------------------|---------------------------|
|---------------------|---------------------------|
|--4------------------|-(4)-----4--5-----5--------|
|---------------------|---------------------------|
|---------------------|---------------------------|
|---------------------|---------------------------|


  E5
                    ~~~~~~~~~~~~~~~~~~~~~~~~
   E  +Q      S  S  H           +Q     +Q      Q     Q
|------------12-12-12--------|-(12)---(12)\---14----15---|
|-12-(12)/-------------------|---------------------------|
|----------------------------|---------------------------|
|----------------------------|---------------------------|
|----------------------------|---------------------------|
|----------------------------|---------------------------|
|
|  E   E   E  E    +E  E E E     E  E   E   E +E  E  E E
|-------------0----(0)-------|--------------0-(0)--------|
|----------0-----------0-----|----------0---------0------|
|------4-----------------4---|------4----------------4---|
|--2-----------------------2-|---3---------------------3-|
|----------------------------|---------------------------|
|----------------------------|---------------------------|
|
|  W                            +Q.         E  Q     Q
|----------------------------|---------------------------|
|----------------------------|---------------------------|
|--4-------------------------|--(4)---------4--5-----5---|
|----------------------------|---------------------------|
|----------------------------|---------------------------|
|----------------------------|---------------------------|


   ~~~                        ~~~~~~~~~~~~~~~
   H.              +E    E    H         +Q      E  S  S
|-14--------------(14)\----|-------------------19-19-19---|
|-----------------------12-|-13--------(13)\--------------|
|--------------------------|------------------------------|
|--------------------------|------------------------------|
|--------------------------|------------------------------|
|--------------------------|------------------------------|
|
|  E  E E E +E  E   E    E    E  E E E  +E   E  E  E
|---------0-(0)------------|---------0--(0)---------------|
|-------0-------0----------|-------0---------0------------|
|-----4-------------4------|-----4--------------4---------|
|--2---------------------2-|--3--------------------3------|
|--------------------------|------------------------------|
|--------------------------|------------------------------|
|
|  W                         +Q.     E   Q      Q
|--------------------------|------------------------------|
|--------------------------|------------------------------|
|--4-----------------------|-(4)-----4---5------5---------|
|--------------------------|------------------------------|
|--------------------------|------------------------------|
|--------------------------|------------------------------|


  E5
   H        +E   E  +S   S  S  S    Q     Q    Q     E  E
|-19-------(19)-19-(19)-19-19-19-|-19---------------------|
|--------------------------------|-------17---19----19S20-|
|--------------------------------|------------------------|
|--------------------------------|------------------------|
|--------------------------------|------------------------|
|--------------------------------|------------------------|
|
|  E E E E  +E   E   E      E       E  E  E E +E  E  E  E
|--------0--(0)------------------|----------0-(0)---------|
|------0---------0---------------|--------0-------0-------|
|----4---------------4-----------|-----4-------------4----|
|--2------------------------2----|--3-------------------3-|
|--------------------------------|------------------------|
|--------------------------------|------------------------|
|
|  W                               +Q.      E  Q     Q
|--------------------------------|------------------------|
|--------------------------------|------------------------|
|--4-----------------------------|-(4)------4--5-----5----|
|--------------------------------|------------------------|
|--------------------------------|------------------------|
|--------------------------------|------------------------|


                                                  ~~~~
                     |---3---|
   H        +E    E  E  E    E    Q        +Q     H
|------------------------------|-16b17====(16)---16r\-------|
|-19-------(19)-----17-17---19-|----------------------------|
|---------------/16------------|----------------------------|
|------------------------------|----------------------------|
|------------------------------|----------------------------|
|------------------------------|----------------------------|
|
|  E E E E  +E    E  E    E       E     E   E  E +E   E E E
|--------0--(0)----------------|---------------0-(0)--------|
|------0----------0------------|------------0---------0-----|
|----4---------------4---------|--------4---------------4---|
|--2----------------------2----|--3-----------------------3-|
|------------------------------|----------------------------|
|------------------------------|----------------------------|
|
|  W                             +Q.           E  Q     Q
|------------------------------|----------------------------|
|------------------------------|----------------------------|
|--4---------------------------|-(4)-----------4--5-----5---|
|------------------------------|----------------------------|
|------------------------------|----------------------------|
|------------------------------|----------------------------|


   Interlude
    Dm
    Gtr I
    Q.   E +E  E Q    +E  E +E  E Q.   E
||--1----1-(1)-1-1--|-(1)-1-(1)-1-1----1-|
||o-3----3-(3)-3-3--|-(3)-3-(3)-3-3----3-|
||--2----2-(2)-2-2--|-(2)-2-(2)-2-2----2-|
||--0----0-(0)-0-0--|-(0)-0-(0)-0-0----0-|
||o-----------------|--------------------|
||------------------|--------------------|


  C
  Q.   E +E  E Q    +E  E +E  E Q  E E
|-0----0-(0)-x-0--|-(0)-0-(0)-0-0--0-0--|
|-1----1-(1)-x-1--|-(1)-1-(1)-1-1--1-1--|
|-0----0-(0)-x-0--|-(0)-0-(0)-0-0--0-0--|
|-2----2-(2)-x-2--|-(2)-2-(2)-2-2--2-2--|
|-3----3-(3)-x-3--|-(3)-3-(3)-3-3--3-3--|
|-----------------|---------------------|


  F/C             Bb              A
  Q.   E Q  E E   Q.   E Q  E E   H    +E  E +E  E   Q  E E Q.   E
|-1----1-1--x-x-|---------------|-0----(0)-0-(0)-0-|-0--0-0-0----0--||
|-1----1-1--x-x-|-3----3-3--x-x-|-2----(2)-2-(2)-2-|-2--2-2-2----2-o||
|-2----2-2--x-x-|-3----3-3--x-x-|-2----(2)-2-(2)-2-|-2--2-2-2----2--||
|-3----3-3--x-x-|-3----3-3--x-x-|-2----(2)-2-(2)-2-|-2--2-2-2----2--||
|-3----3-3--x-x-|-1----1-1--x-x-|-0----(0)-0-(0)-0-|-0--0-0-0----0-o||
|---------------|---------------|------------------|----------------||


  Dm
  Gtr III
   E   E  E  E  E   E  E  E    E   E  E   E  E   E  E  E
|-17-----------17-----------|-17------------17-----------|
|-----18-----------18-------|-----18------------18-------|
|--------19-----------19----|--------19------------19----|
|-----------19-----------19-|------------19-----------19-|
|---------------------------|----------------------------|
|---------------------------|----------------------------|
|
| Gtr I
|  Q.        E +E   E  Q      +E   E +E   E  Q.        E
|--1---------1-(1)--1--1----|-(1)--1-(1)--1--1---------1-|
|--3---------3-(3)--3--3----|-(3)--3-(3)--3--3---------3-|
|--2---------2-(2)--2--2----|-(2)--2-(2)--2--2---------2-|
|--0---------0-(0)--0--0----|-(0)--0-(0)--0--0---------0-|
|---------------------------|----------------------------|
|---------------------------|----------------------------|


  G/B
   E   E  E  E  E   E  E  E    E   E  E   E  E  E  E  E
|-15-----------15-----------|-15------------15----------|
|-----15-15--------15-15----|-----15-15--------15-15----|
|-----------16-----------16-|------------16----------16-|
|---------------------------|---------------------------|
|---------------------------|---------------------------|
|---------------------------|---------------------------|
|
|  Q.        E +E   E  Q      +E   E +E   E  Q     E  E
|--3---------3-(3)--x--3----|-(3)--3-(3)--3--3-----3--3-|
|--3---------3-(3)--x--3----|-(3)--3-(3)--3--3-----3--3-|
|--0---------0-(0)--x--0----|-(0)--0-(0)--0--0-----0--0-|
|--0---------0-(0)--x--0----|-(0)--0-(0)--0--0-----0--0-|
|--2---------2-(2)--x--2----|-(2)--2-(2)--2--2-----2--2-|
|---------------------------|---------------------------|


  Dm
   PM-----------------------------------------------------
   E   E  E  E  E   E  E  E    E   E  E   E  E   E  E  E
|-17-----------17-----------|-17------------17-----------|
|-----18-----------18-------|-----18------------18-------|
|--------19-----------19----|--------19------------19----|
|-----------19-----------19-|------------19-----------19-|
|---------------------------|----------------------------|
|---------------------------|----------------------------|
|
|  Q.        E +E   E  Q      +E   E +E   E  Q.        E
|--1---------1-(1)--1--1----|-(1)--1-(1)--1--1---------1-|
|--3---------3-(3)--3--3----|-(3)--3-(3)--3--3---------3-|
|--2---------2-(2)--2--2----|-(2)--2-(2)--2--2---------2-|
|--0---------0-(0)--0--0----|-(0)--0-(0)--0--0---------0-|
|---------------------------|----------------------------|
|---------------------------|----------------------------|


  G/B
 ----------------------------------------------------|
   E   E  E  E  E   E  E  E    E   E  E   E  E  E  E  E
|-15-----------15-----------|-15------------15----------|
|-----15-15--------15-15----|-----15-15--------15-15----|
|-----------16-----------16-|------------16----------16-|
|---------------------------|---------------------------|
|---------------------------|---------------------------|
|---------------------------|---------------------------|
|
|  Q.        E +E   E  Q      +E   E +E   E  Q     E  E
|--3---------3-(3)--x--3----|-(3)--3-(3)--3--3-----3--3-|
|--3---------3-(3)--x--3----|-(3)--3-(3)--3--3-----3--3-|
|--0---------0-(0)--x--0----|-(0)--0-(0)--0--0-----0--0-|
|--0---------0-(0)--x--0----|-(0)--0-(0)--0--0-----0--0-|
|--2---------2-(2)--x--2----|-(2)--2-(2)--2--2-----2--2-|
|---------------------------|---------------------------|


  Bb                         C
   PM--------------------------------------------------
   E   E  E  E  E  E  E  E    E   E  E  E  E  E  E  E
|-10-----------------------|-12-----------------------|
|-----11----------------11-|-----13----------------13-|
|--------10----------10----|--------12----------12----|
|-----------12----12-------|-----------14----14-------|
|--------------13----------|--------------15----------|
|--------------------------|--------------------------|
|
|  Q.        E  Q     E  E    Q.        E  Q     E  E
|--1---------1--1-----x--x-|--0---------0--0-----x--x-|
|--3---------3--3-----x--x-|--1---------1--1-----x--x-|
|--3---------3--3-----x--x-|--0---------0--0-----x--x-|
|--3---------3--3-----x--x-|--2---------2--2-----x--x-|
|--1---------1--1-----x--x-|--3---------3--3-----x--x-|
|--------------------------|--------------------------|


  Dm
 -----------------------------------------------------|
   E   E  E  E  E   E  E  E    E   E  E   E  E  E  E   E
|-13-----------13-----------|-13---------17-13-----------|
|-----15-----------15-------|-----15-----------15--------|
|--------14-----------14----|--------14-----------14-----|
|-----------15-----------15-|-------------------------15-|
|---------------------------|----------------------------|
|---------------------------|----------------------------|
|
|  Q.        E +E   E  Q      +E   E +E   E  E  E +Q
|--1---------1-(1)--1--1----|-(1)--1-(1)--1--1--1-(1)----|
|--3---------3-(3)--3--3----|-(3)--3-(3)--3--3--3-(3)----|
|--2---------2-(2)--2--2----|-(2)--2-(2)--2--2--2-(2)----|
|--0---------0-(0)--0--0----|-(0)--0-(0)--0--0--0-(0)----|
|---------------------------|----------------------------|
|---------------------------|----------------------------|


  Bb                         C
   PM----------------------------------------------|
   E   E  E  E  E  E  E  E    E   E  E  E  E  E  E  E
|-10-----------------------|-12-----------------------|
|-----11----------------11-|-----13----------------13-|
|--------10----------10----|--------12----------12----|
|-----------12----12-------|-----------14----14-------|
|--------------13----------|--------------15----------|
|--------------------------|--------------------------|
|
| Gtr IV
|  W                          W
|--------------------------|--------------------------|
|--------------------------|--------------------------|
|--------------------------|--------------------------|
|--------------------------|--------------------------|
|--------------------------|--------------------------|
|--------------------------|--------------------------|
|
| Gtr I
|  Q.        E  Q     E  E    Q.        E  Q     E  E
|--1---------1--1-----x--x-|--0---------0--0-----x--x-|
|--3---------3--3-----x--x-|--1---------1--1-----x--x-|
|--3---------3--3-----x--x-|--0---------0--0-----x--x-|
|--3---------3--3-----x--x-|--2---------2--2-----x--x-|
|--1---------1--1-----x--x-|--3---------3--3-----x--x-|
|--------------------------|--------------------------|


  Dm                    C         F/C
           PM------|         PM          PM|
   H       E  E  E  E    Q   E  E  +Q    E  E
|-13------------13-17-|-15---------------------|
|------------15-------|-----17-17-(17)-----17s=|
|---------14----------|-----------------17-----|
|---------------------|------------------------|
|---------------------|------------------------|
|---------------------|------------------------|
|
|          PM------|         PM------------|
|  H       E  E  E  E    Q   E  E  +Q    E  E
|---------------------|------------------------|
|-15------------15-18-|-17---------------------|
|------------14-------|-----17-17-(17)-----17s=|
|---------15----------|-----------------19-----|
|---------------------|------------------------|
|---------------------|------------------------|
|
|  Q.   E  Q     E  E    Q   E  E   Q    E  E
|--1----1--1-----x--x-|--0---x--x---1----x--x--|
|--3----3--3-----x--x-|--1---x--x---1----x--x--|
|--2----2--2-----x--x-|--0---x--x---2----x--x--|
|--0----0--0-----x--x-|--2---x--x---3----x--x--|
|---------------------|--3---x--x---3----x--x--|
|---------------------|------------------------|


  Bb
                             PM
   W               +H        Q    Q
|---------------|---------------------|
|-18------------|-(18)------18\--13---|
|---------------|---------------------|
|---------------|---------------------|
|---------------|---------------------|
|---------------|---------------------|
|
|  PM                        PM
|  W               +H        Q    Q
|---------------|---------------------|
|---------------|---------------------|
|-19------------|-(19)------19\--14---|
|---------------|---------------------|
|---------------|---------------------|
|---------------|---------------------|
|
|  Q.   E Q  Q     +E  E Q   Q    E E
|--1----1-x--1--|--(1)-1-x---1----1-1-|
|--3----3-x--3--|--(3)-3-x---3----3-3-|
|--3----3-x--3--|--(3)-3-x---3----3-3-|
|--3----3-x--3--|--(3)-3-x---3----3-3-|
|--1----1-x--1--|--(1)-1-x---1----1-1-|
|---------------|---------------------|


  Gm                         F/C
   PM--------------------------------------------------
   E   E  E  E  E  E  E  E    E   E  E  E  E  E  E  E
|-----------15-18-15-------|--------13-17-13----------|
|-15-----15----------15----|-13--------------13----13-|
|-----15----------------15-|-----14-------------14----|
|--------------------------|--------------------------|
|--------------------------|--------------------------|
|--------------------------|--------------------------|
|
|  PM--------------------------------------------------
|  E   E  E  E  E  E  E  E    E   E  E  E  E  E  E  E
|--------------15----------|--------------------------|
|-----------15----15-------|--------15-18-15----------|
|-15-----15----------15----|-14--------------14----14-|
|-----17----------------17-|-----15-------------15----|
|--------------------------|--------------------------|
|--------------------------|--------------------------|
|
|  Q.        E  Q     Q       Q.        E  Q     Q
|--3---------3--3-----x----|--1---------1--1-----x----|
|--3---------3--3-----x----|--1---------1--1-----x----|
|--3---------3--3-----x----|--2---------2--2-----x----|
|--5---------5--5-----x----|--3---------3--3-----x----|
|--5---------5--5-----x----|--3---------3--3-----x----|
|--5---------5--5-----x----|--------------------------|


  C                  Bb
 --------------------------|
   E   E  E  E  E  E  Q     +H.       +E   +E
|--------12-------12-13--|-(13)------(13)-(13)\-|
|-----13-------13--------|----------------------|
|-12--------12-----------|----------------------|
|------------------------|----------------------|
|------------------------|----------------------|
|------------------------|----------------------|
|
|-----------------------------------------|
|  E   E  E  E  E  E  Q     +H.       +E   +E
|------------------------|----------------------|
|--------13-------13-15--|-(15)------(15)-(15)\-|
|-----12-------12--------|----------------------|
|-14--------14-----------|----------------------|
|------------------------|----------------------|
|------------------------|----------------------|
|
|  Q.        E  Q     Q     +W
|--0---------x--0-----1--|--(1)-----------------|
|--1---------x--1-----3--|--(3)-----------------|
|--0---------x--0-----3--|--(3)-----------------|
|--2---------x--2-----3--|--(3)-----------------|
|--3---------x--3-----1--|--(1)-----------------|
|------------------------|----------------------|


 Guitar Solo II
  D5
  Gtr III
   ~~~~~                ~~~~~~~~~~       ~~~~~~~~~~~
   H           E  E  E  E    +E    E  E  E      +Q.      +E
|-------------------------|-----------------------------------|
|-14b15-------15----------|-----------------------------------|
|----------------14-------|-----------------------------------|
|-------------------15----|-------------17b19==(17)-----(17)r-|
|----------------------15-|-(15)\-12-15-----------------------|
|-------------------------|-----------------------------------|
|
| Gtr IV
|  E    E E E  E  E  E  E     E    E  E  E       E  E E   E
|-------------------------|-----------------------------------|
|-------------------------|-----------------------------------|
|-------------------------|-----------------------------------|
|--0----0-0----0--0--0----|---0----0--0----------0--0-0-------|
|--0----0-0----0--0--0----|---0----0--0----------0--0-0-------|
|--0----0-0----0--0--0----|---0----0--0----------0--0-0-------|


  G5
                                                             |--3--|
    E  E  E  +E      +E   +E      +E   E    +E   S  S  S  S  S  S  S  Q       +Q
|--------19-(19)b20r(19)-(19)b20r(19)----|---------12-13-12-------------------------|
|-----15------------------------------18-|-(18)-15----------15-13-12----------------|
|-/16------------------------------------|---------------------------14b16---(14)---|
|----------------------------------------|------------------------------------------|
|----------------------------------------|------------------------------------------|
|----------------------------------------|------------------------------------------|
|
|   E  E  E   E       E    E       E   E     E   E     E     E        E    E   E  E
|----------------------------------------|------------------------------------------|
|----------------------------------------|------------------------------------------|
|----------------------------------------|------------------------------------------|
|---5--5--5-----------5----5-------5-----|---5---5-----5--------------5----5---5----|
|---5--5--5-----------5----5-------5-----|---5---5-----5--------------5----5---5----|
|---5--5--5-----------5----5-------5-----|---5---5-----5--------------5----5---5----|


  Bb5                                    C5
    |---3---|  |-------3-------|           |---3----|  |--------3--------|
    Q  Q    Q  Q       +Q     +Q           Q  Q     Q  Q        +Q      +Q
|--------------------------------------|------------------------------------------|
|----------15-17b18r==(17)---(17)b18---|-----15----17-19b20r===(19)----(19)b20----|
|-/15-17-------------------------------|-/17--------------------------------------|
|--------------------------------------|------------------------------------------|
|--------------------------------------|------------------------------------------|
|--------------------------------------|------------------------------------------|
|
|   Q    Q     E    E      E         E     Q     Q     E     E       E          E
|--------------------------------------|------------------------------------------|
|--------------------------------------|------------------------------------------|
|--------------------------------------|------------------------------------------|
|---8----8-----8----8------8---------8-|--10----10----10----10------10---------10-|
|---8----8-----8----8------8---------8-|--10----10----10----10------10---------10-|
|---8----8-----8----8------8---------8-|--10----10----10----10------10---------10-|


  Eb5
   |---3---|  |--------3--------|    |---3----|  |-----3-----|
   Q  Q    Q  Q    Q    E    S  S    Q  Q     Q  Q     Q     Q
|-18-15---------------------15-18-|-20-18---------------------------|
|---------16------16---16---------|----------20-17----18----20------|
|------------15-------------------|---------------------------------|
|---------------------------------|---------------------------------|
|---------------------------------|---------------------------------|
|---------------------------------|---------------------------------|
|
|  Q    Q     E E    E    E          Q     Q     E  E     E     E
|---------------------------------|---------------------------------|
|---------------------------------|---------------------------------|
|--8----8-----8-8----8----8-------|-10----10----10-10----10----10---|
|--8----8-----8-8----8----8-------|-10----10----10-10----10----10---|
|--6----6-----6-6----6----6-------|--8-----8-----8--8-----8-----8---|
|---------------------------------|---------------------------------|


  N.C.      C5
   Q.           S  S  S  S  S  S  S  S  S  S
|--------------------------------------------|
|-17-----------20-17-------------------18-20-|
|-----------------------------17-19-21-------|
|--------------------17-19-20----------------|
|--------------------------------------------|
|--------------------------------------------|
|
|  PM----|      PM------------|         PM----
|  E   S  S  E  S  S  E     S  S  E     S  S
|--------------------------------------------|
|--------------------------------------------|
|--------------------------------------------|
|--------------------------------------------|
|-----------10-------------------10----------|
|-10--10-10-10-10-10-10----10-10-10----10-10-|


                             ~~
   E.       S     +E   S  S  H
|-18b19----18b19-(18)-------------------------|
|---------------------20-17-------------------|
|---------------------------15----------------|
|---------------------------------------------|
|---------------------------------------------|
|---------------------------------------------|
|
|----------|           PM---------|      PM|
|  E     S  S      E   S  S  E  S  S  E  S  S
|---------------------------------------------|
|---------------------------------------------|
|---------------------------------------------|
|---------------------------------------------|
|-----------------10-----------------10-------|
|-10----10-10-----10--10-10-10-10-10-10-10-10-|


  D5
   S  S  S  S  S  S  S  S  S  S  S  S  S  S  S  S    S  S  S  S  S  S  S  S  S  S  S  S  Q
|-------------------------15-14-13-12-15-14-13-12-|-17-16-15-14-17-16-15-14-17-17-17-17-20b22---|
|-15-14-13-12-15-14-13-12-------------------------|---------------------------------------------|
|-------------------------------------------------|---------------------------------------------|
|-------------------------------------------------|---------------------------------------------|
|-------------------------------------------------|---------------------------------------------|
|-------------------------------------------------|---------------------------------------------|
|
|  E     E     E     E     E     E     E     E       E     E     E     E     E     E     E    E
|-------------------------------------------------|---------------------------------------------|
|-------------------------------------------------|---------------------------------------------|
|-------------------------------------------------|---------------------------------------------|
|--0-----0-----0-----------0-----0-----0----------|--0-----0-----0-----------0-----0-----0------|
|--0-----0-----0-----------0-----0-----0----------|--0-----0-----0-----------0-----0-----0------|
|--0-----0-----0-----------0-----0-----0----------|--0-----0-----0-----------0-----0-----0------|


  G5
   E     E  E  E     E  E  E     E    E  E E  E  S S S S E.     +S
|-17b19r17-15----------------------|----------------------------------|
|-------------15b17r15-------------|----------------------------------|
|----------------------16-14b16r14-|-12---------10S9-7---9b11---(9)---|
|----------------------------------|-------9-12--------9--------------|
|----------------------------------|----10----------------------------|
|----------------------------------|----------------------------------|
|
|  E     E  E  E     E  E  E     E    E  E E  E  E   E   E    E
|----------------------------------|----------------------------------|
|----------------------------------|----------------------------------|
|----------------------------------|----------------------------------|
|--5-----5--5--------5--5--5-------|--5--5-5-----5---5---5------------|
|--5-----5--5--------5--5--5-------|--5--5-5-----5---5---5------------|
|--5-----5--5--------5--5--5-------|--5--5-5-----5---5---5------------|


  Bb5                    C5
        TP                    TP
    Q   Q   Q     Q       Q   Q   Q     +E    S  S
|----------------------|---------------------------|
|------11--11\---------|-----13--13----(13)\-13-15-|
|-/10------------10/---|-12------------------------|
|----------------------|---------------------------|
|----------------------|---------------------------|
|----------------------|---------------------------|
|
|   Q   Q   E  E  E  E    Q   Q   E  E   E    E
|----------------------|---------------------------|
|----------------------|---------------------------|
|----------------------|---------------------------|
|---8---8---8--8--8--8-|-10--10--10-10--10---10----|
|---8---8---8--8--8--8-|-10--10--10-10--10---10----|
|---8---8---8--8--8--8-|-10--10--10-10--10---10----|


  Eb5                         F5
                               ~~~~~~~~~~~
   |---3---|  |----3----|
   Q  Q    Q  Q    Q    Q      H        H
|---------------------------|-13------/17-----------|
|-16-------------------16---|-----------------------|
|----15-----------15--------|-----------------------|
|---------17-13-------------|-----------------------|
|---------------------------|-----------------------|
|---------------------------|-----------------------|
|
|  Q    Q     E E    E    E    Q   Q    E  E  E  E
|---------------------------|-----------------------|
|---------------------------|-----------------------|
|--8----8-----8-8----8----8-|-10--10---10-10-10-10--|
|--8----8-----8-8----8----8-|-10--10---10-10-10-10--|
|--6----6-----6-6----6----6-|--8---8----8--8--8--8--|
|---------------------------|-----------------------|


  G5
                                     ~~~
                      |---3----|
   Q   E     +Q.      E  E     E     W
|-15--18b19-(18)-----15-17----18-|-/19-----------------|
|--------------------------------|---------------------|
|--------------------------------|---------------------|
|--------------------------------|---------------------|
|--------------------------------|---------------------|
|--------------------------------|---------------------|
|
|  Q   Q.          E  E     E        Q   Q.    E  E  E
|--------------------------------|---------------------|
|--------------------------------|---------------------|
|-12--12----------12-12----12----|--12--12----12-12-12-|
|-12--12----------12-12----12----|--12--12----12-12-12-|
|-10--10----------10-10----10----|--10--10----10-10-10-|
|--------------------------------|---------------------|


                                                             ~~~
   S  S  S  S  S   S  S  S  S  S  S  S  S  S  S  S    Q      H.
|-15-19-17-16-15--17-16-15-------------------------|--------15---------------|
|--------------------------15----------------------|-------------------------|
|-----------------------------17-16-15-17-16-15-14-|-15b16-------------------|
|--------------------------------------------------|-------------------------|
|--------------------------------------------------|-------------------------|
|--------------------------------------------------|-------------------------|
|
|  Q           Q.                 E     E     E       Q      Q.    E  E  E
|--------------------------------------------------|-------------------------|
|--------------------------------------------------|-------------------------|
|-12----------12-----------------12----12----12----|-12-----12----12-12-12---|
|-12----------12-----------------12----12----12----|-12-----12----12-12-12---|
|-10----------10-----------------10----10----10----|-10-----10----10-10-10---|
|--------------------------------------------------|-------------------------|


 Breakdown
  Eb5             F5                  G5
  Q  Q   Q   Q     Q   Q   Q   E  E   H     +E  E E S  S    W
|---------------|--------------8s10-|-7-----(7)---7-7--8-|-10------------|
|-8----------8--|-10------10---8s10-|-8-----(8)-8-8-8-10-|-12------------|
|-8--8-------8--|-10--10--10--------|-----------7--------|---------------|
|----8---8------|-----10------------|--------------------|---------------|
|-------10------|-------------------|--------------------|---------------|
|---------------|-------------------|--------------------|---------------|
| Q  Q   Q   Q     Q   Q   Q   E  E   H     +E  E E S  S    W
|
| Q  Q   E E Q     Q   Q   E E Q      Q  Q   E  E Q         Q  Q  E E Q
|---------------|-------------------|--------------------|---------------|
|---------------|-------------------|--------------------|---------------|
|---------------|-------------------|--------------------|---------------|
|-1--1---1-1-1--|--3---3---3-3-3----|-5--5---5--5-5------|--5--5--5-5-5--|
|-1--1---1-1-1--|--3---3---3-3-3----|-5--5---5--5-5------|--5--5--5-5-5--|
|-1--1---1-1-1--|--3---3---3-3-3----|-5--5---5--5-5------|--5--5--5-5-5--|


  Eb5                F5
   Q   Q   Q    Q     Q   Q   Q    Q
|-15-----------15--|-13------15---17--|
|-----16-----------|-----15-----------|
|-15--15--15---15--|-17------17---17--|
|---------17-------|-----17-----------|
|------------------|------------------|
|------------------|------------------|
|
|  Q   Q   E E  Q     Q   Q   E E  Q
|------------------|------------------|
|------------------|------------------|
|------------------|------------------|
|--1---1---1-1--1--|--3---3---3-3--3--|
|--1---1---1-1--1--|--3---3---3-3--3--|
|--1---1---1-1--1--|--3---3---3-3--3--|


  G5
   H      +E   E  E  S  S    W
|-19-----(19)----19-19-20-|-22------------|
|-------------20-20-20-22-|-24------------|
|-19-----(19)-19----------|---------------|
|-------------------------|---------------|
|-------------------------|---------------|
|-------------------------|---------------|
|
|  Q  Q    E   E  Q          Q  Q  E E Q
|-------------------------|---------------|
|-------------------------|---------------|
|-------------------------|---------------|
|--5--5----5---5--5-------|--5--5--5-5-5--|
|--5--5----5---5--5-------|--5--5--5-5-5--|
|--5--5----5---5--5-------|--5--5--5-5-5--|


   Chorus
    D5
    PM----|
    |-3-|
    Q Q Q Q  Q    +W
||--------------|------------------|
||o-------------|------------------|
||-----------7--|-(7)--------------|
||-----------7--|-(7)--------------|
||o-0-0-0-0--5--|-(5)--------------|
||--0-0-0-0-----|------------------|
|
|   PM----|
|   |-3-|
|   Q Q Q Q  Q    +Q   E E E E E E
||--------------|------------------|
||o-------------|------------------|
||-----------7--|-(7)--7-7-7-7-7-7-|
||--------------|------------------|
||o-0-0-0-0--5--|-(5)--5-5-5-5-5-5-|
||--0-0-0-0-----|------------------|


  G5
    W                      +W
|------------------------|--------------------------|
|------------------------|--------------------------|
|------------------------|--------------------------|
|---5--------------------|-(5)----------------------|
|---5--------------------|-(5)----------------------|
|---5--------------------|-(5)----------------------|
|
|   Q   E  E  E  E  E  E    E   E  E  E  E  E  E  E
|------------------------|--------------------------|
|------------------------|--------------------------|
|-/12--12-12-12-12-12-12-|-12--12-12-12-12-12-12-12-|
|------------------------|--------------------------|
|-/10--10-10-10-10-10-10-|-10--10-10-10-10-10-10-10-|
|------------------------|--------------------------|


  C5                               F5               A5
  PM----|
  |-3-|
  Q Q Q Q  Q    +W                 W                H        E E Q
|-------------|------------------|----------------|-------------------||
|-------------|------------------|----------------|------------------o||
|----------5--|-(5)--------------|----------------|-2-------/6-6-6----||
|-5-5-5-5--5--|-(5)--------------|-3--------------|-2-----------------||
|-3-3-3-3--3--|-(3)--------------|-3--------------|-0-------/4-4-4---o||
|-------------|------------------|-3--------------|-------------------||
|
| PM----|
| |-3-|
| Q Q Q Q  Q    +Q   E E E E E E   Q  E E E E E E   E E E E  E E Q
|-------------|------------------|----------------|-------------------||
|-------------|------------------|-6--6-6-6-6-6-6-|------------------o||
|----------5--|-(5)--5-5-5-5-5-5-|----------------|-5-5-5-5-/9-9-9----||
|-5-5-5-5-----|------------------|-3--3-3-3-3-3-3-|-------------------||
|-3-3-3-3--3--|-(3)--3-3-3-3-3-3-|----------------|-3-3-3-3-/7-7-7---o||
|-------------|------------------|----------------|-------------------||


 Outro
  D5         C5   F5     Bb5
  W          H    H      Q.   E +Q   Q    +E  E +Q   Q  Q
|----------|-----------|----------------|------------------|
|----------|-----------|----------------|------------------|
|-7--------|-5---------|----------------|------------------|
|-7--------|-5----3----|-8----8-(8)--8--|-(8)-8-(8)--8--8--|
|-5--------|-3----3----|-8----8-(8)--8--|-(8)-8-(8)--8--8--|
|----------|------3----|-8----8-(8)--8--|-(8)-8-(8)--8--8--|


  G5          F5          C5      Bb5
  H    H      H    H      H.      Q    +W
|-----------|-----------|------------|--------|
|-----------|-----------|------------|--------|
|-----------|-----------|-5-------3--|-(3)----|
|-5----5----|-3----3----|-5-------3--|-(3)----|
|-5----5----|-3----3----|-3-------1--|-(1)----|
|-5----5----|-3----3----|------------|--------|


  D5               C5    F5      Bb5
  Q  Q  +E  E Q    Q  Q  Q  Q    Q  Q.   E Q    Q  Q.   E Q
|----------------|-------------|--------------|--------------|
|----------------|-------------|--------------|--------------|
|-7--7--(7)-7-7--|-5--5--------|--------------|--------------|
|-7--7--(7)-7-7--|-5--5--3--3--|-8--8----8-8--|-8--8----8-8--|
|-5--5--(5)-5-5--|-3--3--3--3--|-8--8----8-8--|-8--8----8-8--|
|----------------|-------3--3--|-8--8----8-8--|-8--8----8-8--|


  G5               F5             C5
  Q  Q  +E  E Q    Q  Q  E E Q    W          +W
|----------------|--------------|----------|--------|
|----------------|--------------|----------|--------|
|----------------|--------------|-5--------|-(5)----|
|-5--5--(5)-5-5--|-3--3--3-3-3--|-5--------|-(5)----|
|-5--5--(5)-5-5--|-3--3--3-3-3--|-3--------|-(3)----|
|-5--5--(5)-5-5--|-3--3--3-3-3--|----------|--------|


  Bb5        Bb5              C5
  Gtr III
  W          W                Q  Q  +E  E Q    Q   Q   +E  E Q
|----------|----------------|----------------|------------------|
|----------|----------------|----------------|------------------|
|-3--------|-3--------------|-5--5--(5)-5-5--|-5---5---(5)-5-5--|
|-3--------|-3--------------|-5--5--(5)-5-5--|-5---5---(5)-5-5--|
|-1--------|-1--------------|-3--3--(3)-3-3--|-3---3---(3)-3-3--|
|----------|----------------|----------------|------------------|
|
| Gtr II
| W          Q  E E +Q   Q    W                Q.    E +Q    Q
|----------|----------------|----------------|------------------|
|----------|----------------|----------------|------------------|
|----------|----------------|----------------|------------------|
|----------|----------------|----------------|------------------|
|----------|------3-(3)--5--|-3--------------|-3-----5-(5)---3--|
|----------|----------------|----------------|------------------|


  Bb5                                 C5
  Q  Q  +E  E Q    Q   Q   +E  E Q    Q  Q  +E  E Q    Q   Q     +E  E Q
|----------------|------------------|----------------|--------------------|
|----------------|------------------|----------------|--------------------|
|-3--3--(3)-3-3--|-3---3---(3)-3-3--|-5--5--(5)-5-5--|-5---5-----(5)-5-5--|
|-3--3--(3)-3-3--|-3---3---(3)-3-3--|-5--5--(5)-5-5--|-5---5-----(5)-5-5--|
|-1--1--(1)-1-1--|-1---1---(1)-1-1--|-3--3--(3)-3-3--|-3---3-----(3)-3-3--|
|----------------|------------------|----------------|--------------------|
|
| W                Q.    E +Q    Q    W                Q.    a E +Q    Q
|----------------|------------------|----------------|--------------------|
|----------------|------------------|----------------|--------------------|
|----------------|------------------|----------------|--------------------|
|----------------|------------------|----------------|--------------------|
|-1--------------|------------------|-3--------------|-3-----3S5-(5)---3--|
|----------------|-8-----7-(7)---5--|----------------|--------------------|


  Bb5
  Q  Q  +E  E Q     Q   Q   +E  E Q
|----------------|-------------------|
|----------------|-------------------|
|-3--3--(3)-3-3--|--3---3---(3)-3-3--|
|-3--3--(3)-3-3--|--3---3---(3)-3-3--|
|-1--1--(1)-1-1--|--1---1---(1)-1-1--|
|----------------|-------------------|
|
| W                 Q.    E +Q    Q
|----------------|-------------------|
|----------------|-------------------|
|----------------|-------------------|
|----------------|-------------------|
|-1--------------|-------------------|
|----------------|-/8-----7-(7)---5--|


  Eb5            F5             G5
  Q  Q  E E Q    Q  Q  E E Q    Q  Q  E E Q     Q  Q  E E Q
|--------------|--------------|--------------|---------------|
|--------------|--------------|--------------|---------------|
|--------------|--------------|--------------|---------------|
|-1--1--1-1-1--|-3--3--3-3-3--|-5--5--5-5-5--|--5--5--5-5-5--|
|-1--1--1-1-1--|-3--3--3-3-3--|-5--5--5-5-5--|--5--5--5-5-5--|
|-1--1--1-1-1--|-3--3--3-3-3--|-5--5--5-5-5--|--5--5--5-5-5--|
|
| W              W              W               Q  Q  Q   Q
|--------------|--------------|--------------|---------------|
|--------------|--------------|--------------|---------------|
|--------------|--------------|--------------|---------------|
|--------------|--------------|--------------|---------------|
|--------------|--------------|--------------|---------------|
|-1------------|-3------------|-5------------|-/8--7--5---3--|


  Eb5            F5             G5
  Q  Q  E E Q    Q  Q  E E Q    Q  Q  E E Q    Q  Q  E E Q
|--------------|--------------|--------------|---------------|
|--------------|--------------|--------------|---------------|
|--------------|--------------|--------------|---------------|
|-1--1--1-1-1--|-3--3--3-3-3--|-5--5--5-5-5--|-5--5--5-5-5---|
|-1--1--1-1-1--|-3--3--3-3-3--|-5--5--5-5-5--|-5--5--5-5-5---|
|-1--1--1-1-1--|-3--3--3-3-3--|-5--5--5-5-5--|-5--5--5-5-5---|
|
| W              W              W              H     E E E E
|--------------|--------------|--------------|---------------|
|--------------|--------------|--------------|---------------|
|--------------|--------------|--------------|---------------|
|--------------|--------------|--------------|---------------|
|--------------|--------------|--------------|---------------|
|-1------------|-3------------|-5------------|-5-----3h5-3h5-|


  Eb5            F5             G5
  Q  Q  E E Q    Q  Q  E E Q    Q  Q  E E Q     Q    Q    E  E  Q
|--------------|--------------|--------------|-----------------------|
|--------------|--------------|--------------|-----------------------|
|--------------|--------------|--------------|-----------------------|
|-1--1--1-1-1--|-3--3--3-3-3--|-5--5--5-5-5--|--5----5----5--5--5----|
|-1--1--1-1-1--|-3--3--3-3-3--|-5--5--5-5-5--|--5----5----5--5--5----|
|-1--1--1-1-1--|-3--3--3-3-3--|-5--5--5-5-5--|--5----5----5--5--5----|
|
| W              W              W              +Q    E E +E  E +E  E
|--------------|--------------|--------------|-----------------------|
|--------------|--------------|--------------|-----------------------|
|--------------|--------------|--------------|-----------------------|
|--------------|--------------|--------------|-----------------------|
|--------------|--------------|--------------|-----------------------|
|-1------------|-3------------|-5------------|-(5)--/8-7-(7)-5-(5)-3-|


  Eb5            F5             G5
  Q  Q  E E Q    Q  Q  E E Q    Q  Q  E E Q     Q     Q   E E Q
|--------------|--------------|--------------|-------------------|
|--------------|--------------|--------------|-------------------|
|--------------|--------------|--------------|-------------------|
|-1--1--1-1-1--|-3--3--3-3-3--|-5--5--5-5-5--|--5-----5---5-5-5--|
|-1--1--1-1-1--|-3--3--3-3-3--|-5--5--5-5-5--|--5-----5---5-5-5--|
|-1--1--1-1-1--|-3--3--3-3-3--|-5--5--5-5-5--|--5-----5---5-5-5--|
|
| W              W              W              +E   E E E E E Q
|--------------|--------------|--------------|-------------------|
|--------------|--------------|--------------|-------------------|
|--------------|--------------|--------------|-------------------|
|--------------|--------------|--------------|-------------------|
|--------------|--------------|--------------|-------------------|
|-1------------|-3------------|-5------------|-(5)-/8s7s8s7s8-3--|


  Eb5        F5         G5
  W          W          W          +W
|----------|----------|----------|---------------|
|----------|----------|----------|---------------|
|----------|----------|----------|---------------|
|-1--------|-3--------|-5--------|-(5)-----------|
|-1--------|-3--------|-5--------|-(5)-----------|
|-1--------|-3--------|-5--------|-(5)-----------|
|
| W          W          W           E E E E H
|----------|----------|----------|---------------|
|----------|----------|----------|---------------|
|----------|----------|----------|---------------|
|----------|----------|----------|---------------|
|----------|----------|----------|--3s5s3s5s1----|
|-1--------|-3--------|-5--------|---------------|


  Eb5           F5            G5
                              >
  W             W             W          +W           +W
|-------------|-------------|----------|------------|--------*|
|-------------|-------------|----------|------------|--------*|
|-------------|-------------|----------|------------|--------*|
|-1-----------|-3-----------|-5--------|-(5)--------|-(5)----*|
|-1-----------|-3-----------|-5--------|-(5)--------|-(5)----*|
|-1-----------|-3-----------|-5--------|-(5)--------|-(5)----*|
|
|                             >
| H.       Q    Q  Q  Q  Q    W          +W           +W
|-------------|-------------|----------|------------|--------*|
|-------------|-------------|----------|------------|--------*|
|-------------|-------------|----------|------------|--------*|
|-------------|-------------|----------|------------|--------*|
|-------------|-------------|----------|------------|--------*|
|-1-------/8--|-7--5--7--3--|-5--------|-(5)--------|-(5)----*|

									


911Tabs.com - tabs search engine
More "Strength Of The World" tabs @ 911Tabs

A Guide to Tab NotationGuitar TabsGuitar ResourcesGuitar TabsPrivacy PolicyGuitar TabsContact

Online Guitar Lessons

Avenged Sevenfold Guitar Tabs - Over 200,000 chords, guitar and bass tabs with video. Find tabs, video guitar lessons and more.