Music Guitar Tab, Tabs with MP3, ringtones, ringtone, concert tickets, guitar lessons, guitar tabs easy, guitar hero

Guitar Tabs Guitar Chords Bass Tabs
 Web Guitar Tabs
Guitar Lessons
 
Lyrics abcdefghijklmnopqrstuvwxyz # Top 100 Lyrics

Guitar Tabs
Guitar Tab






click on, click off


Tab for "Strength Of The World" - Avenged Sevenfold Rating 4Print Guitar Tabs
select alternative YouTube videos below...
Tweak the search term to refine the YouTube video results:         
Share on Facebook

Learn to play this song and others via online guitar lessons @ JamPlay.com!

*Almost Done*

Avenged Sevenfold
Strength of the World
City of Evil (2005)

Gtr I (D A D G B E) Acoustic
Gtr II (D A D G B E) Acoustic
Gtr III (D A D G B E) Metal Guitar
Gtr IV (D A D G B E) Metal Guitar
Gtr V (D A D G B E) Violin (Transcribed into Guitar)


  Gtr I
|-----------------|----------------------------------|
|---6-----6-------|---6-----6---8-8S10---------------|
|-----7-----7-----|-----7-----7----------------------|
|-------7-----7---|-------7--------------------------|
|---------------5-|----------------------------------|
|-0---------------|-0--------------------------------|
|
| Gtr II
|-----------------|--------------------3-(3)-(3)-(3)-|
|-----------------|-----------------------3--(3)-(3)-|
|-----------------|---------------------------4--(4)-|
|-----------------|-------------------------------5--|
|-----------------|----------------------------------|
|-----------------|----------------------------------|


|-------------------|-----------------|
|--8------------8---|-8-----------8---|
|-----7-------7---7-|---7-------7---7-|
|-------5---5-------|-----5---5-------|
|---------5---------|-------5---------|
|-------------------|-----------------|
|
|-(3)---------------|-----------------|
|-(3)---------------|-----------------|
|-(4)---------------|-----------------|
|-(5)---------------|-----------------|
|--5----------------|-----------------|
|-------------------|-9---------------|


|-----------------|----------------------------------|
|---6-----6-------|---6-----6---8-8S10---------------|
|-----7-----7-----|-----7-----7----------------------|
|-------7-----7---|-------7--------------------------|
|---------------5-|----------------------------------|
|-0---------------|-0--------------------------------|
|
|-----------------|--------------------3-(3)-(3)-(3)-|
|-----------------|-----------------------3--(3)-(3)-|
|-----------------|---------------------------4--(4)-|
|-----------------|-------------------------------5--|
|-----------------|----------------------------------|
|-----------------|----------------------------------|


|-------------------|------------------|
|--8------------8---|-8-----------8----|
|-----7-------7---7-|---7-------7---7--|
|-------5---5-------|-----5---5--------|
|---------5---------|-------5----------|
|-------------------|------------------|
|
|-(3)---------------|------------------|
|-(3)---------------|------------------|
|-(4)---------------|------------------|
|-(5)---------------|------------------|
|--5----------------|------------------|
|-------------------|-9----------------|


|----------------------|-----------------------------------------|
|----6-----6-----------|-----6-------6----8--8S10----------------|
|------7-----7---------|-------7-------7-------------------------|
|--------7-------7-----|----------7------------------------------|
|--------------------5-|-----------------------------------------|
|--0-------------------|--0--------------------------------------|
|
|----------------------|---------------------------3-(3)-(3)-(3)-|
|----------------------|------------------------------3--(3)-(3)-|
|----------------------|----------------------------------4--(4)-|
|----------------------|--------------------------------------5--|
|----------------------|-----------------------------------------|
|--0-------------------|-(0)-------------(0)---------------------|
|
| Gtr V
|-10-----------(10)----|-10------12-13---------15-17-------------|
|-------------------10-|-----------------------------------------|
|----------------------|-----------------------------------------|
|----------------------|-----------------------------------------|
|----------------------|-----------------------------------------|
|----------------------|-----------------------------------------|


|-------------------|--------------------|
|--8------------8---|--8-----------8-----|
|-----7-------7---7-|----7-------7----7--|
|-------5---5-------|------5---5---------|
|---------5---------|--------5-----------|
|-------------------|--------------------|
|
|-(3)---------------|--------------------|
|-(3)---------------|--------------------|
|-(4)---------------|--------------------|
|-(5)---------------|--------------------|
|--5----------------|--------------------|
|-------------------|--9-----------3\----|
|
|-15----------------|--------------------|
|-------------------|-15-----------------|
|-------------------|--------------------|
|-------------------|--------------------|
|-------------------|--------------------|
|-------------------|--------------------|


|----------------------|-----------------------------------------|
|----6-----6-----------|-----6-------6----8--8S10----------------|
|------7-----7---------|-------7-------7-------------------------|
|--------7-------7-----|----------7------------------------------|
|--------------------5-|-----------------------------------------|
|--0-------------------|--0--------------------------------------|
|
|----------------------|---------------------------3-(3)-(3)-(3)-|
|----------------------|------------------------------3--(3)-(3)-|
|----------------------|----------------------------------4--(4)-|
|----------------------|--------------------------------------5--|
|----------------------|-----------------------------------------|
|--0-------------------|-(0)-------------(0)---------------------|
|
|----------------------|-10------12-13---------15-17-------------|
|-15-----------(15)-10-|-----------------------------------------|
|----------------------|-----------------------------------------|
|----------------------|-----------------------------------------|
|----------------------|-----------------------------------------|
|----------------------|-----------------------------------------|


|-------------------------|--------------------|
|--8--------------8-------|--8-----------------|
|-----7-------7------7----|----7--------7------|
|-------5---5-------------|------5----5--------|
|---------5---------------|--------5-------0-2-|
|-------------------------|--------------------|
|
|-(3)---------------------|--------------------|
|-(3)---------------------|--------------------|
|-(4)---------------------|----------------7S==|
|-(5)---------------------|--------------------|
|--5----------------------|--------------------|
|-------------------------|--9-----------------|
|
|-15------------/20-19-17-|-19-------20---22---|
|-------------------------|--------------------|
|-------------------------|--------------------|
|-------------------------|--------------------|
|-------------------------|--------------------|
|-------------------------|--------------------|


|---------------------------|-------------------|
|---------3------5----------|------3---5--------|
|-----0-------0-----7-----7-|----0---0---7----7-|
|----------------------5----|---------------5---|
|--3------------------------|--1----------------|
|---------------------------|-------------------|
|
|---------------------------|-------------------|
|---------------------------|-------------------|
|--9------------------------|---------------7S==|
|---------------------------|-------------------|
|---------------------------|-------------------|
|---------------------------|-------------------|
|
|-20------------------------|-------------------|
|----20-(20)-17-17----------|-------------------|
|------------------17-17-15-|-15-----------12---|
|---------------------------|-------------------|
|---------------------------|-------------------|
|---------------------------|-------------------|


|-----------------------|--------------------|
|------3-----5----------|-------3----5-------|
|----0----0-----7-----7-|----0----0----7---7-|
|------------------5----|----------------5---|
|--3--------------------|--1-----------------|
|-----------------------|--------------------|
|
|-----------------------|--------------------|
|-----------------------|--------------------|
|--9--------------------|--------------------|
|-----------------------|--------------------|
|-----------------------|--------------------|
|-----------------------|--------------------|
|
|--------------15-15-18-|-18---22---18-------|
|-13-----17-17----------|--------------------|
|-----------------------|--------------------|
|-----------------------|--------------------|
|-----------------------|--------------------|
|-----------------------|--------------------|


|---------6\----------------|--------6---------------6-------|
|----8----------------8-10\-|------8---8-----------8---8-----|
|------7-----------7--------|----7-------7---7---7-------7---|
|--5------------------------|--5-----------5---5-----------5-|
|----------------8----------|--------------------------------|
|---------------------------|--------------------------------|
|
| Gtr V
|-15-----17--18-17---15-----|-15-----------------------------|
|---------------------------|--------------------------------|
|---------------------------|--------------------------------|
|---------------------------|--------------------------------|
|---------------------------|--------------------------------|
|---------------------------|--------------------------------|


|--------6\-------------|-------6---------------6-------|
|---8-------------8-10\-|-----8---8-----------8---8-----|
|-----7---------7-------|---7-------7---7---7-------7---|
|-5---------------------|-5-----------5---5-----------5-|
|------------8----------|-------------------------------|
|-----------------------|-------------------------------|
|
|-----------------------|-------------------------------|
|-8-----10--11-10-8-10--|-8-----------------------------|
|-----------------------|-------------------------------|
|-----------------------|-------------------------------|
|-----------------------|-------------------------------|
|-----------------------|-------------------------------|


|--------------------------------------|
|------6-8-----6-8------8-10------8-10-|
|--------------------------------------|
|----5-------5--------7--------7-------|
|--6-------6--------8--------8---------|
|--------------------------------------|
|
|-11---------------10------------------|
|--------------------------------13----|
|--------------------------------------|
|--------------------------------------|
|--------------------------------------|
|--------------------------------------|


|---------------------------------------------------|
|-------10-11-(11)---------------10-11-(11)---------|
|---------------------------------------------------|
|-----8-------------------8----8------------------8-|
|-10---------------10-------10--------------10------|
|---------------------------------------------------|
|
|-------10----(10)----------------------------------|
|-11-13---------------13-11-------------10-----11---|
|---------------------------12----------------------|
|---------------------------------------------------|
|---------------------------------------------------|
|---------------------------------------------------|


                                                               H=H
|---------------------------------------|---------------------------|
|------6-8------6-8------8-10------8-10-|----------------------8----|
|---------------------------------------|---------7-(7)------7------|
|----5-------5---------7--------7-------|----9----------9-----------|
|--6-------6---------8--------8---------|-10---10---------10--------|
|---------------------------------------|---------------------------|
|
| Gtr II
|---------------------------------------|---------------------------|
|---------------------------------------|---------------------------|
|---------------------------------------|---------------------------|
|---------------------------------------|---------------------------|
|---------------------------------------|---------------------------|
|--1-----------------3------------------|--5------------------------|
|
| Gtr V
|---------------------------------------|---------------------------|
|--------------11---10------------------|---------------------------|
|-12------------------------------12----|-12------------------------|
|---------------------------------------|---------------------------|
|---------------------------------------|---------------------------|
|---------------------------------------|---------------------------|


    Q=156
    Gtr III
||--------------------|---------------------------------|
||o-------------------|---------------------------------|
||--------------------|---------------------------------|
||------7---------5---|---------------------------------|
||o-------8-(8)-----7-|-(7)---7-8-(8)-7-5---------------|
||--0-0---------0-----|-----0-------------8-------------|
|
|   Gtr IV
||--------------------|---------------------------------|
||o-------------------|---------------------------------|
||--------------------|---------------------------------|
||--0-----------------|-(0)-----------------------------|
||o-0-----------------|-(0)-----------------------------|
||--0-----------------|-(0)-----------------------------|
|
|   Gtr II
||--------------------|-------------------3-(3)-(3)-(3)-|
||o-------------------|----------------------3--(3)-(3)-|
||--------------------|--------------------------4--(4)-|
||--------------------|------------------------------5--|
||o-------------------|---------------------------------|
||--------------------|---------------------------------|


|------------|---------||
|------------|--------o||
|------------|---------||
|------------|---------||
|--5---------|-(5)----o||
|--5---------|-(5)-----||
|
|------------|---------||
|------------|--------o||
|------------|---------||
|--5---------|-(5)-----||
|--5---------|-(5)----o||
|--5---------|-(5)-----||
|
|-(3)--------|-(3)-----||
|-(3)--------|-(3)----o||
|-(4)--------|-(4)-----||
|-(5)--------|-(5)-----||
|--5---------|-(5)----o||
|------------|---------||


|-------------------|---------------------------------|
|-------------------|---------------------------------|
|-------------------|---------------------------------|
|-----7---------5---|---------------------------------|
|-------8-(8)-----7-|-(7)---7-8-(8)-7-5---------------|
|-0-0---------0-----|-----0-------------8-------------|
|
| PM---------------------------------------------------
|-------------------|---------------------------------|
|-------------------|---------------------------------|
|-------------------|---------------------------------|
|-------------------|---------------------------------|
|-0-0-0-0--0--0-0-0-|--0--0-0-0--0--0-0-0-------------|
|-0-0-0-0--0--0-0-0-|--0--0-0-0--0--0-0-0-------------|
|
|-------------------|-------------------3-(3)-(3)-(3)-|
|-------------------|----------------------3--(3)-(3)-|
|-------------------|--------------------------4--(4)-|
|-------------------|------------------------------5--|
|-------------------|---------------------------------|
|-------------------|---------------------------------|


|-------------------|--------------------|
|-------------------|--------------------|
|-------------------|--------------------|
|-------------------|--------------------|
|--5----------------|-(5)----------------|
|--5----------------|-(5)----------------|
|
|-------------------------------------|
|-------------------|--------------------|
|-------------------|--------------------|
|-------------------|--------------------|
|-------------------|--------------------|
|--5--5-5-5-5-5-5-5-|--5--5-5-5-5-5-5-5--|
|--5--5-5-5-5-5-5-5-|--5--5-5-5-5-5-5-5--|
|
|-(3)---------------|-(3)----------------|
|-(3)---------------|-(3)----------------|
|-(4)---------------|-(4)----------------|
|-(5)---------------|-(5)----------------|
|--5----------------|-(5)----------------|
|-------------------|--------------------|


|-------------------|---------------------------------|
|-------------------|---------------------------------|
|-------------------|---------------------------------|
|-----7---------5---|---------------------------------|
|-------8-(8)-----7-|-(7)---7-8-(8)-7-5---------------|
|-0-0---------0-----|-----0-------------8-------------|
|
| PM---------------------------------------------------
|-------------------|---------------------------------|
|-------------------|---------------------------------|
|-------------------|---------------------------------|
|-------------------|---------------------------------|
|-0-0-0-0--0--0-0-0-|--0--0-0-0--0--0-0-0-------------|
|-0-0-0-0--0--0-0-0-|--0--0-0-0--0--0-0-0-------------|
|
|-------------------|-------------------3-(3)-(3)-(3)-|
|-------------------|----------------------3--(3)-(3)-|
|-------------------|--------------------------4--(4)-|
|-------------------|------------------------------5--|
|-------------------|---------------------------------|
|-------------------|---------------------------------|


                          PM--|
|-------------------|--------------------|
|-------------------|--------------------|
|-------------------|--------------------|
|-------------------|-----------5-5-5-5--|
|--5----------------|-(5)-5-5-5-5-5-5-5--|
|--5----------------|-(5)-5-5-5-5-5-5-5--|
|
|-------------------------------------|
|-------------------|--------------------|
|-------------------|--------------------|
|-------------------|--------------------|
|-------------------|--------------------|
|--5--5-5-5-5-5-5-5-|--5--5-5-5-5-5-5-5--|
|--5--5-5-5-5-5-5-5-|--5--5-5-5-5-5-5-5--|
|
|-(3)---------------|-(3)----------------|
|-(3)---------------|-(3)----------------|
|-(4)---------------|-(4)----------------|
|-(5)---------------|-(5)----------------|
|--5----------------|-(5)----------------|
|-------------------|--------------------|


    Gtrs III, IV
||--------------------|---------------------|
||o-------------------|---------------------|
||--------------------|---------------------|
||------7---------5---|---------------------|
||o-------8-(8)-----7-|-(7)---7-8-(8)-7-5---|
||--0-0---------0-----|-----0-------------8-|


|-------------------|----------------------|
|-------------------|----------------------|
|-------------------|----------------------|
|-------------------|----------------------|
|-----5-7-(7)-----8-|-(8)-----7-(7)-5------|
|-5-8---------5-8---|-----5-8---------8-5--|


     PM------------|   PM|   PM  PM
|----------------|------------------||
|----------------|-----------------o||
|----------------|------------------||
|-0--------------|---1-----1---1----||
|-0--0-0-0-0-0-0-|---1-----1---1---o||
|-0--0-0-0-0-0-0-|-0-1-0-0-1-0-1-0--||


   Verse
    $
||--------------------|---------------------|
||o-------------------|---------------------|
||--------------------|---------------------|
||------7---------5---|---------------------|
||o-------8-(8)-----7-|-(7)---7-8-(8)-7-5---|
||--0-0---------0-----|-----0-------------8-|


|-------------------|----------------------|
|-------------------|----------------------|
|-------------------|----------------------|
|-------------------|----------------------|
|-----5-7-(7)-----8-|-(8)-----7-(7)-5------|
|-5-8---------5-8---|-----5-8---------8-5--|


     PM------------|   PM|   PM  PM
|----------------|------------------||
|----------------|-----------------o||
|----------------|------------------||
|-0--------------|---1-----1---1----||
|-0--0-0-0-0-0-0-|---1-----1---1---o||
|-0--0-0-0-0-0-0-|-0-1-0-0-1-0-1-0--||


   Pre-Chorus
    PM----|          PM----|                           PM----------|
||-----------------|----------------|---------------|------------------||
||o----------------|----------------|---------------|-----------------o||
||-----------------|----------------|---------------|------------------||
||----------0------|---------0------|-3-2-1---3-2-1-|------------------||
||o-0-0-0-0-0------|-0-0-0-0-0------|-3-2-1---3-2-1-|--1-1-1-1-1-1-1--o||
||--0-0-0-0-0------|-0-0-0-0-0------|-3-2-1---3-2-1-|--1-1-1-1-1-1-1---||


  Gtr III
|-------------------|-------------------|
|-------------------|-------------------|
|-------------------|-------------------|
|-7-5-----------5-7-|-7-5-----------5-7-|
|-----8-5-(5)-8-----|-----8-5-(5)-8-----|
|-------------------|-------------------|
|
| Gtr IV
|-------------------|-------------------|
|-------------------|-------------------|
|-------------------|-------------------|
|-------------------|-------------------|
|-8-7-5-------5-7-8-|-8-7-5-------5-7-8-|
|-------8-(8)-------|-------8-(8)-------|


|-------------------------|-------------------------|
|-------------------------|-------------------------|
|-------------------------|--9----------------------|
|-10-7---------------7-10-|----7---------------7-10-|
|------10--7--(7)-10------|------10--7--(7)-10------|
|-------------------------|-------------------------|
|
|-------------------------|-------------------------|
|-------------------------|-------------------------|
|-------------------------|-------------------------|
|-------------------------|-------------------------|
|-10-8--7----------7-8-10-|-10-8--7----------7-8-10-|
|---------10-(10)---------|---------10-(10)---------|


|----------|-------|
|----------|-------|
|----------|-------|
|-4--------|-/7----|
|----------|-------|
|----------|-------|
|
|----------|-------|
|----------|-------|
|----------|-------|
|----------|-------|
|-5--------|-/9----|
|----------|-------|


   Chorus
    PM----|
||--------------|------------|----------|--------|
||o-------------|------------|----------|--------|
||-----------7--|-(7)--------|----------|--------|
||-----------7--|-(7)--------|-5--------|-(5)----|
||o-0-0-0-0--5--|-(5)--------|-5--------|-(5)----|
||--0-0-0-0-----|------------|-5--------|-(5)----|


|-------------|------------|----------|----------------||
|-------------|------------|----------|---------------o||
|----------5--|-(5)--------|----------|-2----/6-6-6----||
|-5-5-5-5--5--|-(5)--------|-3--------|-2--------------||
|-3-3-3-3--3--|-(3)--------|-3--------|-0----/4-4-4---o||
|-------------|------------|-3--------|----------------||


  Gtr I
|---1---1-1--x-x-|--0--x-x--1--x-x-|-1---1-x--1--|-(1)-1-x--1--1-1-|
|---3---3-3--x-x-|--1--x-x--1--x-x-|-3---3-x--3--|-(3)-3-x--3--3-3-|
|---2---2-2--x-x-|--0--x-x--2--x-x-|-3---3-x--3--|-(3)-3-x--3--3-3-|
|---0---0-0--x-x-|--2--x-x--3--x-x-|-3---3-x--3--|-(3)-3-x--3--3-3-|
|----------------|--3--x-x--3--x-x-|-1---1-x--1--|-(1)-1-x--1--1-1-|
|----------------|-----------------|-------------|-----------------|
|
| Gtr II
|-/10------------|-12-------8------|-6S==========|=13--------------|
|----------------|-----------------|-------------|-----------------|
|-/10------------|--9------10------|-7S==========|=15--------------|
|----------------|-----------------|-------------|-----------------|
|----------------|-----------------|-------------|-----------------|
|----------------|-----------------|-------------|-----------------|


|--3---3-3--x--|--1---1-1--x--|-0---x-0--1--|-(1)----|
|--3---3-3--x--|--1---1-1--x--|-1---x-1--3--|-(3)----|
|--3---3-3--x--|--2---2-2--x--|-0---x-0--3--|-(3)----|
|--5---5-5--x--|--3---3-3--x--|-2---x-2--3--|-(3)----|
|--5---5-5--x--|--3---3-3--x--|-3---x-3--1--|-(1)----|
|--5---5-5--x--|--------------|-------------|--------|
|
|-10-----------|-13-----------|-8S=======6--|-(6)----|
|--------------|--------------|-------------|--------|
|--7-----------|-14-----------|-9S=======7--|-(7)----|
|--------------|--------------|-------------|--------|
|--------------|--------------|-------------|--------|
|--------------|--------------|-------------|--------|


 Breakdown
  Gtrs III, IV
|----------|------------|----------|--------|
|----------|------------|----------|--------|
|----------|------------|----------|--------|
|-0--------|-(0)--------|-5--------|-(5)----|
|-0--------|-(0)--------|-5--------|-(5)----|
|-0--------|-(0)--------|-5--------|-(5)----|


           D.S.
|----------|-------|
|----------|-------|
|-3--------|-5-----|
|-3--------|-5-----|
|-1--------|-3-----|
|----------|-------|


|----------|-----------|-------------------|-------------------|
|----------|-----------|-------------------|-------------------|
|-8--------|-10--------|-12--12---12-12-12-|-12--12---12-12-12-|
|-8--------|-10--------|-12--12---12-12-12-|-12--12---12-12-12-|
|-6--------|--8--------|-10--10---10-10-10-|-10--10---10-10-10-|
|----------|-----------|-------------------|-------------------|


|-------------------|-------------------|
|-------------------|-------------------|
|-12--12---12-12-12-|-12--12---12-12-12-|
|-12--12---12-12-12-|-12--12---12-12-12-|
|-10--10---10-10-10-|-10--10---10-10-10-|
|-------------------|-------------------|


  Gtr III
|---------------|--------------8s10-|-7-----(7)---7-7--8-|-10-------------|
|-8----------8--|-10------10---8s10-|-8-----(8)-8-8-8-10-|-12-------------|
|-8--8-------8--|-10--10--10--------|-----------7--------|----------------|
|----8---8------|-----10------------|--------------------|----------------|
|-------10------|-------------------|--------------------|----------------|
|---------------|-------------------|--------------------|----------------|
|
| Gtr IV
|---------------|-------------------|--------------------|----------------|
|---------------|-------------------|--------------------|----------------|
|---------------|-------------------|--------------------|----------------|
|-1--1---1-1-1--|--3---3---3-3-3----|-5--5---5--5-5------|--5--5--5-5-5---|
|-1--1---1-1-1--|--3---3---3-3-3----|-5--5---5--5-5------|--5--5--5-5-5---|
|-1--1---1-1-1--|--3---3---3-3-3----|-5--5---5--5-5------|--5--5--5-5-5---|


|-15-----------15--|-13------15---17--|
|-----16-----------|-----15-----------|
|-15--15--15---15--|-17------17---17--|
|---------17-------|-----17-----------|
|------------------|------------------|
|------------------|------------------|
|
|------------------|------------------|
|------------------|------------------|
|------------------|------------------|
|--1---1---1-1--1--|--3---3---3-3--3--|
|--1---1---1-1--1--|--3---3---3-3--3--|
|--1---1---1-1--1--|--3---3---3-3--3--|


|-19-----(19)----19-19-20-|-22-------------|
|-------------20-20-20-22-|-24-------------|
|-19-----(19)-19----------|----------------|
|-------------------------|----------------|
|-------------------------|----------------|
|-------------------------|----------------|
|
|-------------------------|----------------|
|-------------------------|----------------|
|-------------------------|----------------|
|--5--5----5---5--5-------|--5--5--5-5-5---|
|--5--5----5---5--5-------|--5--5--5-5-5---|
|--5--5----5---5--5-------|--5--5--5-5-5---|


 Guitar Solo
  Gtr III
  >
|-------------------|---------------------|
|-------------------|---------------------|
|-------------------|---------------------|
|-2-----------------|-(2)-----------------|
|-2-----------------|-(2)-----------------|
|-2-----------------|-(2)-----------------|
|
| Gtr I
|-------0-(0)-------|---------0-(0)-------|
|-----0-------0-----|-------0-------0-----|
|---4-----------4---|-----4-----------4---|
|-2---------------2-|--3----------------3-|
|-------------------|---------------------|
|-------------------|---------------------|
|
| Gtr II
|-------------------|---------------------|
|-------------------|---------------------|
|-------------------|---------4--5----5---|
|-------------------|---------------------|
|-------------------|---------------------|
|-------------------|---------------------|


|---------------------|----------------------------|
|---------------------|---------------------12-12--|
|---------------------|----------------------------|
|-(2)-----------------|-(2)-------------(2)--------|
|-(2)-----------------|-(2)-------------(2)--------|
|-(2)-----------------|-(2)-------------(2)--------|
|
|---------0-(0)-------|---------0-(0)--------------|
|-------0-------0-----|-------0-------0------------|
|-----4-----------4---|-----4------------4---------|
|--2----------------2-|--3-------------------3-----|
|---------------------|----------------------------|
|---------------------|----------------------------|
|
|---------------------|----------------------------|
|---------------------|----------------------------|
|--4------------------|-(4)-----4--5-----5---------|
|---------------------|----------------------------|
|---------------------|----------------------------|
|---------------------|----------------------------|


             ~~~~~~~~~~~~~~~~~~~~~~~
|--------12-12--------|-(12)---(12)---14----15---|
|-12------------------|--------------------------|
|---------------------|--------------------------|
|---------------------|--------------------------|
|---------------------|--------------------------|
|---------------------|--------------------------|
|
|---------0-(0)-------|-------------0-(0)--------|
|------0--------0-----|----------0--------0------|
|----4------------4---|------4---------------4---|
|--2----------------2-|---3--------------------3-|
|---------------------|--------------------------|
|---------------------|--------------------------|
|
|---------------------|--------------------------|
|---------------------|--------------------------|
|--4------------------|--(4)--------4--5-----5---|
|---------------------|--------------------------|
|---------------------|--------------------------|
|---------------------|--------------------------|


   ~~                       ~~~~~~~~~~~~~~
|-14-------------(14)----|------------------19-19-19--|
|---------------------12-|-13--------(13)-------------|
|------------------------|----------------------------|
|------------------------|----------------------------|
|------------------------|----------------------------|
|------------------------|----------------------------|
|
|--------0-(0)-----------|---------0--(0)-------------|
|------0-------0---------|-------0--------0-----------|
|----4-------------4-----|-----4-------------4--------|
|--2-------------------2-|--3-------------------3-----|
|------------------------|----------------------------|
|------------------------|----------------------------|
|
|------------------------|----------------------------|
|------------------------|----------------------------|
|--4---------------------|-(4)-----4---5-----5--------|
|------------------------|----------------------------|
|------------------------|----------------------------|
|------------------------|----------------------------|


|-19-------(19)-19-(19)-19-19-19-|-19---------------------|
|--------------------------------|-------17---19----19s20-|
|--------------------------------|------------------------|
|--------------------------------|------------------------|
|--------------------------------|------------------------|
|--------------------------------|------------------------|
|
|--------0--(0)------------------|----------0-(0)---------|
|------0---------0---------------|--------0-------0-------|
|----4---------------4-----------|-----4-------------4----|
|--2------------------------2----|--3-------------------3-|
|--------------------------------|------------------------|
|--------------------------------|------------------------|
|
|--------------------------------|------------------------|
|--------------------------------|------------------------|
|--4-----------------------------|-(4)------4--5-----5----|
|--------------------------------|------------------------|
|--------------------------------|------------------------|
|--------------------------------|------------------------|


                                      ~~~~~~~~~~
|------------------------------|-15s=17-----17--------|
|-19-------(19)-----17-17---19-|----------------------|
|---------------/16------------|----------------------|
|------------------------------|----------------------|
|------------------------------|----------------------|
|------------------------------|----------------------|
|
|--------0--(0)----------------|----------0-(0)-------|
|------0----------0------------|--------0-------0-----|
|----4---------------4---------|------4-----------4---|
|--2----------------------2----|--3-----------------3-|
|------------------------------|----------------------|
|------------------------------|----------------------|
|
|------------------------------|----------------------|
|------------------------------|----------------------|
|--4---------------------------|-(4)------4--5----5---|
|------------------------------|----------------------|
|------------------------------|----------------------|
|------------------------------|----------------------|
									


911Tabs.com - tabs search engine
More "Strength Of The World" tabs @ 911Tabs

A Guide to Tab NotationGuitar TabsGuitar ResourcesGuitar TabsPrivacy PolicyGuitar TabsContact

Online Guitar Lessons

Avenged Sevenfold Guitar Tabs - Over 200,000 chords, guitar and bass tabs with video. Find tabs, video guitar lessons and more.