Music Guitar Tab, Tabs with MP3, ringtones, ringtone, concert tickets, guitar lessons, guitar tabs easy, guitar hero

Guitar Tabs Guitar Chords Bass Tabs
 Web Guitar Tabs
Guitar Lessons
 
Lyrics abcdefghijklmnopqrstuvwxyz # Top 100 Lyrics

Guitar Tabs
Guitar Tab






click on, click off


Tab for "Streets" - Avenged Sevenfold Rating 4Print Guitar Tabs
select alternative YouTube videos below...
Tweak the search term to refine the YouTube video results:         
Share on Facebook

Learn to play this song and others via online guitar lessons @ JamPlay.com!

Avenged Sevenfold- Streets

Intro
D--------------------------|
A--------------------------|
F--------------------------|
C----9---------------------|
G----9----let ring---------|
D----7---------------------|

pick slide

D--------------------------------------------------------------------------|
A--------------------------------------------------------------------------|
F------------------------------------------12------------------12----------|
C---------9--------------9-----------------12------------------12----------|
G---------9--------------9---------10--10--10--10--10--10--10--10--10--10--|
D---7--7--7--7--7--7--7--7--7--7-------------------------------------------|
  PM.......     ...........   .............      ...............

D-------------------------------------------------------------------------|
A-------------------------------------------------------------------------|
F-------------------------------------------------11------------11--------|
C----------12-----------------12------------------11------------11--------|
G----------12-----------------12------------9--9--9--9--9--9--9--9--9--9--|
D--10--10--10--10--10--10--10-10--10--10----------------------------------|
  PM.....      ..............    .......    .....    ...........   ......


D--------------------------------------------------------------------------|
A--------------------------------------------------------------------------|
F------------------------------------------12------------------12----------|
C---------9--------------9-----------------12------------------12----------|
G---------9--------------9---------10--10--10--10--10--10--10--10--10--10--|
D---7--7--7--7--7--7--7--7--7--7-------------------------------------------|
  PM.......     ...........   .............      ...............

D-------------------------------------------------------------------------|
A-------------------------------------------------------------------------|
F-------------------------------------------------11------------11--------|
C----------12-----------------12------------------11------------11--------|
G----------12-----------------12------------9--9--9--9--9--9--9--9--9--9--|
D--10--10--10--10--10--10--10-10--10--10----------------------------------|
  PM.....      ..............    .......    .....    ...........   ......

D---------------------------|
A---------------------------|
F---------------------------|
C----9~ --------------------|
G----9~ let ring------------|
D----7~ --------------------|

Verse 1 (4x)
D-----------------------------------------------------|
A-----------------------------------------------------|
F------------------------12--12--12--12--12--12--12---|
C--9--9--9--9--9--9--9---12--12--12--12--12--12--12---|
G--9--9--9--9--9--9--9---10--10--10--10--10--10--10---|
D--7--7--7--7--7--7--7--------------------------------|

D---------------------------------------------------------|
A---------------------------------------------------------|
F------------------------------11--11--11--11-11-11--11---|
C--12--12--12--12--12--12--12--11--11--11--11-11-11--11---|
G--12--12--12--12--12--12--12---9---9---9---9--9--9---9---|
D--10--10--10--10--10--10--10-----------------------------|

Chorus (2x)

D-----------------------------------------------------------|
A-----------------------------------------------------------|
F--12--12--12--12--12--12--12-------------------------------|
C--12--12--12--12--12--12--12--12--12--12--12--12--12--12---|
G--10--10--10--10--10--10--10--12--12--12--12--12--12--12---|
D------------------------------10--10--10--10--10--10--10---|

D---------------------------------------------|
A---------------------------------------------|
F--9--9--9--9--9--9--9------------------------|
C--9--9--9--9--9--9--9--9--9--9--9--9--9--9---|
G--7--7--7--7--7--7--7--9--9--9--9--9--9--9---|
D-----------------------7--7--7--7--7--7--7---|

D-----------------------------------------------------------|
A-----------------------------------------------------------|
F--12--12--12--12--12--12--12-------------------------------|
C--12--12--12--12--12--12--12--12--12--12--12--12--12--12---|
G--10--10--10--10--10--10--10--12--12--12--12--12--12--12---|
D------------------------------10--10--10--10--10--10--10---|

D----------------------------------|
A----------------------------------|
F----------------------------------|
C--11--11--11--11--11--11--11--11--|
G--9---9---9---9---9---9---9---9---|
D----------------------------------|


Verse 2

Lead Guitar
D--------------------------------------------------------------------|
A--------------------------------------------------------------------|
F--11-11-11-11-11-11-11-11-11-11-11/12---7-7-7-7-7-7-/-9-9-9-9-9-9---|
C--------------------------------------------------------------------|
G---9--9--9--9--9--9--9--9--9--9--9/10---5-5-5-5-5-5-/-7-7-7-7-7-7---|
D--------------------------------------------------------------------|

D--------------------------------------------------------------------|
A--------------------------------------------------------------------|
F--11-11-11-11-11-11-11-11-11-11-11/12---7-7-7-7-7-7-/-9-9-9-9-9-9---|
C--------------------------------------------------------------------|
G---9--9--9--9--9--9--9--9--9--9--9/10---5-5-5-5-5-5-/-7-7-7-7-7-7---|
D--------------------------------------------------------------------|

Rhythm Guitar
D---------------------------------------------------------------|
A---------------------------------------------------------------|
F---------------------------------------------------------------|
C--9---------------------9-/-12---5----------5--7---------------|
G--9---------------------9-/-12---5----------5--7---------------|
D--7-7-7-7-7-7-7-7-7-7-7-7-/-10---3-3-3-3-3--3--5-5-5-5-5-5-5---|
PM   ...................            .......       ...........


D---------------------------------------------------------------|
A---------------------------------------------------------------|
F---------------------------------------------------------------|
C--9---------------------9-/-12---5----------5--7---------------|
G--9---------------------9-/-12---5----------5--7---------------|
D--7-7-7-7-7-7-7-7-7-7-7-7-/-10---3-3-3-3-3--3--5-5-5-5-5-5-5---|
PM   ...................            .......       ...........

D----------------------------------------------------------------|
A----------------------------------------------------------------|
F---------------------------------7----------7--11---------------|
C--9---------------------9-/-12---7----------7--11---------------|
G--9---------------------9-/-12---5-5-5-5-5--5---9-9-9-9-9-9-9---|
D--7-7-7-7-7-7-7-7-7-7-7-7-/-10----------------------------------|
PM   ...................            ........       ............


Lead Guitar
D--------------------------------------------------------------------|
A--------------------------------------------------------------------|
F--11-11-11-11-11-11-11-11-11-11-11/12---7-7-7-7-7-7-/-9-9-9-9-9-9---|
C--------------------------------------------------------------------|
G---9--9--9--9--9--9--9--9--9--9--9/10---5-5-5-5-5-5-/-7-7-7-7-7-7---|
D--------------------------------------------------------------------|

Rhythm Guitar
D----------------------------------------------------------------|
A----------------------------------------------------------------|
F---------------------------------7----------7--11---------------|
C--9---------------------9-/-12---7----------7--11---------------|
G--9---------------------9-/-12---5-5-5-5-5--5---9-9-9-9-9-9-9---|
D--7-7-7-7-7-7-7-7-7-7-7-7-/-10----------------------------------|
PM   ...................            ........       ............

D---------------------------------------------|
A---------------------------------------------|
F------------------------7-7-7-7--------------|
C--9-9-9-9----5-5-5-5----7-7-7-7----7-7-7-7---|
G--9-9-9-9----5-5-5-5----5-5-5-5----7-7-7-7---|
D--7-7-7-7----3-3-3-3---------------5-5-5-5---|

D-------------------------------------------------|
A-------------------------------------------------|
F------------------------7-7-7-7---11-11-11-11----|
C--9-9-9-9----5-5-5-5----7-7-7-7---11-11-11-11----|
G--9-9-9-9----5-5-5-5----5-5-5-5----9--9--9--9----|
D--7-7-7-7----3-3-3-3-----------------------------|

Verse 1 (4x)
D-----------------------------------------------------|
A-----------------------------------------------------|
F------------------------12--12--12--12--12--12--12---|
C--9--9--9--9--9--9--9---12--12--12--12--12--12--12---|
G--9--9--9--9--9--9--9---10--10--10--10--10--10--10---|
D--7--7--7--7--7--7--7--------------------------------|

D---------------------------------------------------------|
A---------------------------------------------------------|
F------------------------------11--11--11--11-11-11--11---|
C--12--12--12--12--12--12--12--11--11--11--11-11-11--11---|
G--12--12--12--12--12--12--12---9---9---9---9--9--9---9---|
D--10--10--10--10--10--10--10-----------------------------|

Chorus (2x)

D-----------------------------------------------------------|
A-----------------------------------------------------------|
F--12--12--12--12--12--12--12-------------------------------|
C--12--12--12--12--12--12--12--12--12--12--12--12--12--12---|
G--10--10--10--10--10--10--10--12--12--12--12--12--12--12---|
D------------------------------10--10--10--10--10--10--10---|

D---------------------------------------------|
A---------------------------------------------|
F--9--9--9--9--9--9--9------------------------|
C--9--9--9--9--9--9--9--9--9--9--9--9--9--9---|
G--7--7--7--7--7--7--7--9--9--9--9--9--9--9---|
D-----------------------7--7--7--7--7--7--7---|

D-----------------------------------------------------------|
A-----------------------------------------------------------|
F--12--12--12--12--12--12--12-------------------------------|
C--12--12--12--12--12--12--12--12--12--12--12--12--12--12---|
G--10--10--10--10--10--10--10--12--12--12--12--12--12--12---|
D------------------------------10--10--10--10--10--10--10---|

D----------------------------------|
A----------------------------------|
F----------------------------------|
C--11--11--11--11--11--11--11--11--|
G--9---9---9---9---9---9---9---9---|
D----------------------------------|

End Riff
Lead Guitar X4
D--------------------------------------------------------------------|
A--------------------------------------------------------------------|
F--11-11-11-11-11-11-11-11-11-11-11/12---7-7-7-7-7-7-/-9-9-9-9-9-9---|
C--------------------------------------------------------------------|
G---9--9--9--9--9--9--9--9--9--9--9/10---5-5-5-5-5-5-/-7-7-7-7-7-7---|
D--------------------------------------------------------------------|

Rhythm Guitar X8
(The first two times the lead guitar does his riff, let only the A power chord ring thru)
D------------------------------------------------------------------|
A------------------------------------------------------------------|
F------------------------------------------------------------------|
C--9---------------------9-/-12---5----------5-/-7-------------7-/-|
G--9---------------------9-/-12---5----------5-/-7-------------7-/-|
D--7-7-7-7-7-7-7-7-7-7-7-7-/-10---3-3-3-3-3--3-/-5-5-5-5-5-5-5-5-/-|
PM   ...................            .......       ...........

On the last time thru let the end G power chord ring out
									


911Tabs.com - tabs search engine
More "Streets" tabs @ 911Tabs

A Guide to Tab NotationGuitar TabsGuitar ResourcesGuitar TabsPrivacy PolicyGuitar TabsContact

Online Guitar Lessons

Avenged Sevenfold Guitar Tabs - Over 200,000 chords, guitar and bass tabs with video. Find tabs, video guitar lessons and more.