Music Guitar Tab, Tabs with MP3, ringtones, ringtone, concert tickets, guitar lessons, guitar tabs easy, guitar hero

Guitar Tabs Guitar Chords Bass Tabs
 Web Guitar Tabs
Guitar Lessons
 
Lyrics abcdefghijklmnopqrstuvwxyz # Top 100 Lyrics

Guitar Tabs
Guitar Tab






click on, click off


Tab for "Shattered By Broken Dreams" - Avenged Sevenfold Rating 4Print Guitar Tabs
select alternative YouTube videos below...
Tweak the search term to refine the YouTube video results:         
Share on Facebook

Learn to play this song and others via online guitar lessons @ JamPlay.com!

SHATTERED BY BROKEN DREAMS
As recorded by Avenged Sevenfold
(From the 2002 Album SOUNDING THE SEVENTH TRUMPET)

Gtr I (E A D G B E) - 'Acoustic Guitar 1'
Gtr II (D A D G B E) - 'Clean Guitar 1'
Gtr III (D A D G B E) - 'Heavy Guitar 1'
Gtr IV (D A D G B E) - 'Heavy Guitar 2'

   Intro
    Q=60
    N.C.
   4/4
    Gtr I
||----------0-------------0-------|---------0-------------0-------|
||o-----0-----0-------1-----1-----|-----0-----0-------1-----1-----|
||--------2-----2-------2-----2---|-------2-----2-------2-----2---|
||----2-------------2-----------2-|---2-------------2-----------2-|
||o-0-------------0---------------|-0-------------0---------------|
||--------------------------------|-------------------------------|


  N.C.
|-------------------------------|-----------------------------------||
|-----------------------0-------|---------0---------------0--------o||
|---------0---------0-----0-----|-------0---0-----------0---0-------||
|-----0-----0-----0---0-----0---|-----2-------2-------2-------2-----||
|---2---2-----2-----------------|---2-----------2---2-----------2--o||
|-3-------------3-------------3-|-0---------------0-----------------||


   Verse
    N.C.
||----------0-------------0---------|---------0-------------0---------|
||o-----0-----0-------1-------1-----|-----0-----0-------1-------1-----|
||--------2-----2-------2-------2---|-------2-----2-------2-------2---|
||----2-------------2-------------2-|---2-------------2-------------2-|
||o-0-------------0-----------------|-0-------------0-----------------|
||----------------------------------|---------------------------------|
|
|   Gtr II
||----------------------------------|---------------------------------|
||o---------------------------------|---------------------------------|
||--2---2---2---2-2-2-2---2-4-2-5---|-2---2---2---2-2-2-2---2-4-2-5---|
||----------------------------------|---------------------------------|
||o---------------------------------|---------------------------------|
||----------------------------------|---------------------------------|


|---------------------------------|--------------------------------------||
|-----------------------0---------|---------0---------------0-----------o||
|---------0---------0-------0-----|-------0---0-----------0-----0--------||
|-----0-----0-----0---0-------0---|-----2-------2-------2---------2------||
|---2---2-----2-------------------|---2-----------2---2-------------2---o||
|-3-------------3---------------3-|-0---------------0--------------------||
|
|---------------------------------|--------------------------------------||
|---------------------------------|-------------------------------------o||
|-0---0---0---0-0-0-0---0-2-0-2---|-0---0---0---0-0---0-0---0-2-0-2------||
|---------------------------------|--------------------------------------||
|---------------------------------|-------------------------------------o||
|---------------------------------|--------------------------------------||


   Chorus
    Q=63
    C/E                     B5/E
||------------------------|-----------------------|
||o-1-1-1-1-1-1-1-1-1-1-1-|-0-0-0-0-0-0-0-0-0-0-0-|
||--0-0-0-0-0-0-0-0-0-0-0-|-x-x-x-x-x-x-x-x-x-x-x-|
||--x-x-x-x-x-x-x-x-x-x-x-|-4-4-4-4-4-4-4-4-4-4-4-|
||o-3-3-3-3-3-3-3-3-3-3-3-|-2-2-2-2-2-2-2-2-2-2-2-|
||--0-0-0-0-0-0-0-0-0-0-0-|-0-0-0-0-0-0-0-0-0-0-0-|


  A5/E                    G5        B5/E
|-----------------------|----------------------------||
|-----------------------|-----------0-0-0-0-0-0-0-0-o||
|-2-2-2-2-2-2-2-2-2-2-2-|-0-0-0-0-0-x-x-x-x-x-x-x-x--||
|-x-x-x-x-x-x-x-x-x-x-x-|-0-0-0-0-0-4-4-4-4-4-4-4-4--||
|-0-0-0-0-0-0-0-0-0-0-0-|-5-5-5-5-5-2-2-2-2-2-2-2-2-o||
|-0-0-0-0-0-0-0-0-0-0-0-|-3-3-3-3-3-0-0-0-0-0-0-0-0--||


  C/E                     B5/E
|-----------------------|--------------------------|
|-1-1-1-1-1-1-1-1-1-1-1-|-0-0-0--0--0--0-0-0-0-0-0-|
|-0-0-0-0-0-0-0-0-0-0-0-|-x-x-x--x--x--x-x-x-x-x-x-|
|-x-x-x-x-x-x-x-x-x-x-x-|-4-4-4--4--4--4-4-4-4-4-4-|
|-3-3-3-3-3-3-3-3-3-3-3-|-2-2-2--2--2--2-2-2-2-2-2-|
|-0-0-0-0-0-0-0-0-0-0-0-|-0-0-0--0--0--0-0-0-0-0-0-|
|
| Gtrs III, IV
|-----------------------|--------------------------|
|-----------------------|--------------------------|
|-5-5-5-5-5-5-5-5-5-5-5-|-9-9-9-12-12-12-9-9-9-9-9-|
|-----------------------|--------------------------|
|-----------------------|--------------------------|
|-----------------------|--------------------------|


  A5/E                                        G5             B5/E
|-------------------------------------------|----------------------------------------|
|-------------------------------------------|-----------------0--0--0--0--0--0-0-0---|
|--2--2--2--2--2--2-----2--2-----2-----2--2-|--0--0--0--0--0--x--x--x--x--x--x-x-x---|
|--x--x--x--x--x--x-----x--x-----x-----x--x-|--0--0--0--0--0--4--4--4--4--4--4-4-4---|
|--0--0--0--0--0--0-----0--0-----0-----0--0-|--5--5--5--5--5--2--2--2--2--2--2-2-2---|
|--0--0--0--0--0--0-----0--0-----0-----0--0-|--3--3--3--3--3--0--0--0--0--0--0-0-0---|
|
|-------------------------------------------|----------------------------------------|
|-------------------------------------------|----------------------------------------|
|-14-14-14-14-14-14-14-14-14-14-14-16-16-16-|-16-14-14-12-12-12-12-10-10-10-10-9-9---|
|-------------------------------------------|----------------------------------------|
|-------------------------------------------|----------------------------------------|
|-------------------------------------------|----------------------------------------|


  C/E                               B5/E
|---------------------------------|---------------------------------|
|-1---1-1-1---1-1---1-1---1---1-1-|-0---0-0-0---0-0---0-0---0---0-0-|
|-0---0-0-0---0-0---0-0---0---0-0-|-x---x-x-x---x-x---x-x---x---x-x-|
|-x---x-x-x---x-x---x-x---x---x-x-|-4---4-4-4---4-4---4-4---4---4-4-|
|-3---3-3-3---3-3---3-3---3---3-3-|-2---2-2-2---2-2---2-2---2---2-2-|
|-0---0-0-0---0-0---0-0---0---0-0-|-0---0-0-0---0-0---0-0---0---0-0-|
|
|---------------------------------|---------------------------------|
|---------------------------------|---------------------------------|
|-9-9-9-9-9-9-9-9-9-9-9-9-9-9-9-9-|-4-4-4-4-4-4-4-4-9-9-7-7-5-5-4-4-|
|---------------------------------|---------------------------------|
|---------------------------------|---------------------------------|
|---------------------------------|---------------------------------|


  A5/E                              G5            B5/E
|---------------------------------|------------------------------------|
|---------------------------------|---------------0---0-0-0-0-0-0-0----|
|-2---2-2-2---2-2---2-2---2---2-2-|-0---0-0-0---0-x---x-x-x-x-x-x-x----|
|-x---x-x-x---x-x---x-x---x---x-x-|-0---0-0-0---0-4---4-4-4-4-4-4-4----|
|-0---0-0-0---0-0---0-0---0---0-0-|-5---5-5-5---5-2---2-2-2-2-2-2-2----|
|-0---0-0-0---0-0---0-0---0---0-0-|-3---3-3-3---3-0---0-0-0-0-0-0-0----|
|
|---------------------------------|------------------------------------|
|---------------------------------|------------------------------------|
|-5-5-5-5-5-5-5-5-5-5-5-5-5-5-5-5-|-4-4-4-4-4-4-4-4-4-4-4-4-4-4-4-4----|
|---------------------------------|------------------------------------|
|---------------------------------|------------------------------------|
|---------------------------------|------------------------------------|


 Pre-Verse
  Q=65
  A5                                A5
  Gtr III
    PM------------------------|       PM--------------------------|
                                                                      3x
|-------------------------------||------------------------------------||
|-------------------------------||o----------------------------------o||
|-------------------------------||------------------------------------||
|-7-7-7-7-7-7-7-7-7-7-7-7-7-7-7-||--7-7-7-7---7-7-7-7-7-7-7-7-7-7-7---||
|-7-7-7-7-7-7-7-7-7-7-7-7-7-7-7-||o-7-7-7-7---7-7-7-7-7-7-7-7-7-7-7--o||
|-7-7-7-7-7-7-7-7-7-7-7-7-7-7-7-||--7-7-7-7---7-7-7-7-7-7-7-7-7-7-7---||
|
| Gtr IV
|                                                                     3x
|-------------------------------||------------------------------------||
|-------------------------------||o----------------------------------o||
|-------------------------------||--2-2-2-2h3p2-0-2-------------------||
|-------------------------------||------------------3-5-2-3-----------||
|---------------------------3-2-||o-------------------------3-5-2-0--o||
|---------------3-2-0-2-3-2-----||------------------------------------||


  A5                                  E     D     C B
    PM--------------|     PM|
                                                           4x
|---------------------------------||-----------------------||
|---------------------------------||o---------------------o||
|---------------------------------||--9-9-9-7-7-7-5-4-(4)--||
|-7-7-7-7---7-7-7-7-7-----7-7-----||--x-x-x-x-x-x-x-x-(x)--||
|-7-7-7-7---7-7-7-7-7-----7-7-----||o-7-7-7-5-5-5-3-2-(2)-o||
|-7-7-7-7---7-7-7-7-7-----7-7-----||-----------------------||
|
|                                                          4x
|---------------------------------||-----------------------||
|---------------------------------||o---------------------o||
|-2-2-2-2h3p2-0-2-----------------||--9-9-9-7-7-7-5-4-(4)--||
|-----------------3-5-2-3---------||--x-x-x-x-x-x-x-x-(x)--||
|-------------------------3-5-2-0-||o-7-7-7-5-5-5-3-2-(2)-o||
|---------------------------------||-----------------------||


   Verse
    A5    C5  G/B          A5    C5  G/B
      PM|   PM               PM|   PM
                        4x
||----------------------||--------------------|
||o--------------------o||--------------------|
||--------5-5-4----(4)--||-------5-5-4----(4)-|
||--7-7-7-5-5-5----(5)--||-7-7-7-5-5-5----(5)-|
||o-7-7-7-3-3-2----(2)-o||-7-7-7-3-3-2----(2)-|
||--7-7-7---------------||-7-7-7--------------|
|
|                            PM|   PM
|                       4x
||----------------------||--------------------|
||o--------------------o||--------------------|
||----------------------||-------5-5-4----(4)-|
||----------------------||-7-7-7-5-5-5----(5)-|
||o--------------------o||-7-7-7-3-3-2----(2)-|
||----------------------||-7-7-7--------------|


    A5    C5  G/B          A5                A5
    Gtrs III, IV
      PM|   PM             PM------------------------|
                        3x
||----------------------||-----------------|--------------|
||o--------------------o||-----------------|--------------|
||--------5-5-4----(4)--||-----------------|--------------|
||--7-7-7-5-5-5----(5)--||-7-7-7-7-7-7-7-7-|-7-7-7-7-7----|
||o-7-7-7-3-3-2----(2)-o||-7-7-7-7-7-7-7-7-|-7-7-7-7-7----|
||--7-7-7---------------||-7-7-7-7-7-7-7-7-|-7-7-7-7-7----|


 Verse
  Q=160
  D5                E5                D5                E5
|-----------------|-----------------|-----------------|---------------|
|-----------------|-----------------|-----------------|---------------|
|-----------------|-----------------|-----------------|---------------|
|-0-0-0-0-0-0-0-0-|-2-2-2-2-2-2-2-2-|-0-0-0-0-0-0-0-0-|-2-2-2-2-------|
|-0-0-0-0-0-0-0-0-|-2-2-2-2-2-2-2-2-|-0-0-0-0-0-0-0-0-|-2-2-2-2-3--2--|
|-0-0-0-0-0-0-0-0-|-2-2-2-2-2-2-2-2-|-0-0-0-0-0-0-0-0-|-2-2-2-2-------|


    A5                              C5
      PM------------------------|     PM------------------------|
||--------------------------------|--------------------------------|
||o-------------------------------|--------------------------------|
||--------------------------------|--------------------------------|
||--------------------------------|-5-5-5-5-5-5-5-5-5-5-5-5-5-5-5--|
||o-7-7-7-7-7-7-7-7-7-7-7-7-7-7-7-|-3-3-3-3-3-3-3-3-3-3-3-3-3-3-3--|
||--7-7-7-7-7-7-7-7-7-7-7-7-7-7-7-|--------------------------------|


  G5                              E5
    PM------------------------|
|-------------------------------|-----------------||
|-------------------------------|----------------o||
|-------------------------------|-----------------||
|-------------------------------|-2-2-2--------3--||
|-5-5-5-5-5-5-5-5-5-5-5-5-5-5-5-|-2-2-2--2-3-5---o||
|-5-5-5-5-5-5-5-5-5-5-5-5-5-5-5-|-2-2-2-----------||


 Bridge
  A5          C5                   G5          E5
|---------------|----------------|---------------|----------------|
|---------------|----------------|---------------|----------------|
|-------------5-|-5-5--5---------|---------------|----------------|
|-7-7--7-7-7--5-|-5-5--5-2-0-----|-5-5--5-5-5--2-|-2-2--2-------3-|
|-7-7--7-7-7--3-|-3-3--3-----3-2-|-5-5--5-5-5--2-|-2-2--2-2-3-5---|
|-7-7--7-7-7----|----------------|-5-5--5-5-5--2-|-2-2--2---------|


  A5          C5                   G5                E5
|---------------|----------------|-----------------|-----------------|
|---------------|----------------|-----------------|-----------------|
|-------------5-|-5-5--5---------|-----------------|-----------------|
|-7-7--7-7-7--5-|-5-5--5-2-0-----|-5-5-5-5-5-5-5-5-|-2-2-2-2-2-2-2-2-|
|-7-7--7-7-7--3-|-3-3--3-----3-2-|-5-5-5-5-5-5-5-5-|-2-2-2-2-2-2-2-2-|
|-7-7--7-7-7----|----------------|-5-5-5-5-5-5-5-5-|-2-2-2-2-2-2-2-2-|


 Interlude
  slower Q=129
  A5
  Gtr III
  PM             TP
|----------|-----------|-------|
|----------|-----------|-------|
|----------|-----------|-------|
|-7--------|-----x\----|-------|
|-7--------|-----x\----|-------|
|-7--------|-----x\----|-------|
|
| Gtr IV
| PM                     TP
|----------|-----------|-------|
|----------|-----------|-------|
|----------|-----------|-------|
|-7--------|-----------|-x\----|
|-7--------|-----------|-x\----|
|-7--------|-----------|-x\----|


   Breakdown
    Q=150
    A5      D5E5F5  D5     C5    B5    A5      D5E5F5
    Gtrs III, IV
                    PM--|
||----------------|------------------|---------------|
||o---------------|------------------|---------------|
||----------------|------------------|---------------|
||--7-7-7---0-2-3-|-0-0-0--10-10-9-9-|-7-7-7---0-2-3-|
||o-7-7-7---0-2-3-|-0-0-0--10-10-9-9-|-7-7-7---0-2-3-|
||--7-7-7---0-2-3-|-0-0-0--10-10-9-9-|-7-7-7---0-2-3-|


  D5              C5          B5
  PM--------------------------------|
                                       4x
|--------------------------------------||
|-------------------------------------o||
|--------------------------------------||
|--------------------------------------||
|-0-0-0-0-0-0-0-0-10-10-10-10-9-9-9-9-o||
|-0-0-0-0-0-0-0-0-10-10-10-10-9-9-9-9--||


 Guitar Break
  A5
  PM
|----------|---------|-----|
|----------|---------|-----|
|----------|---------|-----|
|-7--------|---------|-----|
|-7--------|---------|-----|
|-7--------|---------|-----|


   Re-Chorus
    Q=146
    C5                                E5
||----------------|-----------------|---------------|------------------|
||o---------------|-----------------|---------------|------------------|
||--5--5-5-5--5-5-|-5-5-5-5-5-5-5-5-|---------------|------------------|
||--5--5-5-5--5-5-|-5-5-5-5-5-5-5-5-|-2--2-2-2--2-2-|-2-2-2-2-2-2-2-2--|
||o-3--3-3-3--3-3-|-3-3-3-3-3-3-3-3-|-2--2-2-2--2-2-|-2-2-2-2-2-2-2-2--|
||----------------|-----------------|-2--2-2-2--2-2-|-2-2-2-2-2-2-2-2--|


  A5                                G5
                                    PM---------------------|
|---------------|-----------------|-------------|--------------||
|---------------|-----------------|-------------|-------------o||
|---------------|-----------------|-------------|--------------||
|-7--7-7-7--7-7-|-7-7-7-7-7-7-7-7-|-------------|--------------||
|-7--7-7-7--7-7-|-7-7-7-7-7-7-7-7-|-5--5--5--5--|-5--5--5--5--o||
|-7--7-7-7--7-7-|-7-7-7-7-7-7-7-7-|-5--5--5--5--|-5--5--5--5---||


    C5
    Gtr III
||----------------|---------------------|
||o---------------|---------------------|
||--5--5-5-5--5-5-|-5-5-5-5--5--5--5--5-|
||--5--5-5-5--5-5-|-5-5-5-5--5--5--5--5-|
||o-3--3-3-3--3-3-|-3-3-3-3--3--3--3--3-|
||----------------|---------------------|
|
|   Gtr IV
||----------------|---------------------|
||o---------------|---------------------|
||--5--5-5-5--5-5-|-9-9-9-9-12-12-12-12-|
||----------------|---------------------|
||o---------------|---------------------|
||----------------|---------------------|


  E5
|---------------|--------------------------|
|---------------|--------------------------|
|---------------|--------------------------|
|-2--2-2-2--2-2-|--2--2--2--2--2--2--2--2--|
|-2--2-2-2--2-2-|--2--2--2--2--2--2--2--2--|
|-2--2-2-2--2-2-|--2--2--2--2--2--2--2--2--|
|
|---------------|--------------------------|
|---------------|--------------------------|
|-9--9-9-9--9-9-|-14-14-14-14-16-16-16-16--|
|---------------|--------------------------|
|---------------|--------------------------|
|---------------|--------------------------|


  A5                                  G5
                                      PM----------------------------|
|-----------------|-----------------|-----------------|------------------||
|-----------------|-----------------|-----------------|-----------------o||
|-----------------|-----------------|-----------------|------------------||
|-7---7-7-7---7-7-|-7-7-7-7-7-7-7-7-|-----------------|------------------||
|-7---7-7-7---7-7-|-7-7-7-7-7-7-7-7-|-5---5---5---5---|-5---5---5---5---o||
|-7---7-7-7---7-7-|-7-7-7-7-7-7-7-7-|-5---5---5---5---|-5---5---5---5----||
|
|-----------------|-----------------|-----------------|------------------||
|-----------------|-----------------|-----------------|-----------------o||
|-9-9-9-9-9-9-9-9-|-9-9-9-9-9-9-9-9-|-4-4-4-4-4-4-4-4-|-9-9-7-7-5-5-4-4--||
|-----------------|-----------------|-----------------|------------------||
|-----------------|-----------------|-----------------|-----------------o||
|-----------------|-----------------|-----------------|------------------||


 Bridge
  Q=113
  E5          E5
                          TP
|-----------|-----------|-------|
|-----------|-----------|-------|
|-----------|-----------|-------|
|--2--------|--2--------|-x\----|
|--2--------|--2--------|-x\----|
|--2--------|--2--------|-x\----|
|
|                         TP
|-----------|-----------|-------|
|-----------|-----------|-------|
|-----------|-----------|-------|
|-----------|-----------|-x\----|
|-/7--------|-/7--------|-x\----|
|-----------|-----------|-x\----|


 Pre-Verse
  E5        F#G5            F#5
  Gtrs III, IV
                            PM----------------------------|
|-------------------------|---------------------------------|
|-------------------------|---------------------------------|
|-------------------------|---------------------------------|
|-2-2-2-2-2-4-5-5-5-5-5-5-|---------------------------------|
|-2-2-2-2-2-4-5-5-5-5-5-5-|-4-4-4-4-4-4-4-4-4-4-4-4-4-4-4-4-|
|-2-2-2-2-2-4-5-5-5-5-5-5-|-4-4-4-4-4-4-4-4-4-4-4-4-4-4-4-4-|


  E5        F#G5            F#5
  Gtr III
                            PM-----------------------------|
|-------------------------|----------------------------------|
|-------------------------|----------------------------------|
|-------------------------|----------------------------------|
|-2-2-2-2-2-4-5-5-5-5-5-5-|----------------------------------|
|-2-2-2-2-2-4-5-5-5-5-5-5-|-4-4-4-4-4-4-4-4--4-4-4-4-4-4-4-4-|
|-2-2-2-2-2-4-5-5-5-5-5-5-|-4-4-4-4-4-4-4-4--4-4-4-4-4-4-4-4-|
|
| Gtr IV
|-------------------------|----------------------------------|
|-------------------------|----------------------------------|
|-------------------------|-----------------11---------------|
|-------------------------|------------------x---------------|
|-------------------------|------------------9---------------|
|-------------------------|----------------------------------|


  E5         F#5G5            F#5
                              PM----------------------------|
|---------------------------|---------------------------------|
|---------------------------|---------------------------------|
|---------------------------|---------------------------------|
|-2-2-2-2--2--4-5-5-5-5-5-5-|---------------------------------|
|-2-2-2-2--2--4-5-5-5-5-5-5-|-4-4-4-4-4-4-4-4-4-4-4-4-4-4-4-4-|
|-2-2-2-2--2--4-5-5-5-5-5-5-|-4-4-4-4-4-4-4-4-4-4-4-4-4-4-4-4-|
|
|---------------------------|---------------------------------|
|---------------------------|---------------------------------|
|-9-9-9-9-11-12-7-7-7-7-7-7-|-7-------------------------------|
|-x-x-x-x--x--x-x-x-x-x-x-x-|-x-------------------------------|
|-7-7-7-7--9-10-5-5-5-5-5-5-|-5-------------------------------|
|---------------------------|---------------------------------|


  E5         F#5G5            F#5                                    E
                              PM---------------------------------|
|---------------------------|--------------------------------------|------|
|---------------------------|--------------------------------------|------|
|---------------------------|--------------------------------------|------|
|-2-2-2-2--2--4-5-5-5-5-5-5-|--------------------------------------|------|
|-2-2-2-2--2--4-5-5-5-5-5-5-|-4--4--4-4--4-4-4-4-4-4-4-4--4--4-4-4-|------|
|-2-2-2-2--2--4-5-5-5-5-5-5-|-4--4--4-4--4-4-4-4-4-4-4-4--4--4-4-4-|------|
|
|---------------------------|--------------------------------------|------|
|---------------------------|--------------------------------------|------|
|-9-9-9-9-11-12-7-7-7-7-7-7-|-7-11-11---11-------8-------(8)-------|-9----|
|-x-x-x-x--x--x-x-x-x-x-x-x-|-x--x--x----x-------x-------(x)-------|-x----|
|-7-7-7-7--9-10-5-5-5-5-5-5-|-5--9--9----9-------6-------(6)-------|-7----|
|---------------------------|--------------------------------------|------|


 Out-Chorus
  C5                                      B5  G5E5
                                        PM----|
|-------------------------------------------|-------------------------------|
|-------------------------------------------|-------------------------------|
|-------------------------------------------|-------------------------------|
|-10--10-10-10-10-10-10-10-10-10-10-10-10-9-|-5-----------------------------|
|-10--10-10-10-10-10-10-10-10-10-10-10-10-9-|-5-2-2-2-2-2-2-2-2-2-2-2-2-2-2-|
|-10--10-10-10-10-10-10-10-10-10-10-10-10-9-|-5-2-2-2-2-2-2-2-2-2-2-2-2-2-2-|
|
|                                             PM
|-------------------------------------------|-------------------------------|
|-------------------------------------------|-------------------------------|
|-(9)---------------------------------------|-------------------------------|
|-(x)---------------------------------------|-5-----------------------------|
|-(7)---------------------------------------|-5-2-2-2-2-2-2-2-2-2-2-2-2-2-2-|
|-------------------------------------------|-5-2-2-2-2-2-2-2-2-2-2-2-2-2-2-|


    C5                                     B5  G5E5
    Gtrs III, IV
                                         PM----|
                                                                              3x
||-------------------------------------------|--------------------------------||
||o------------------------------------------|-------------------------------o||
||-------------------------------------------|--------------------------------||
||--10-10-10-10-10-10-10-10-10-10-10-10-10-9-|-5------------------------------||
||o-10-10-10-10-10-10-10-10-10-10-10-10-10-9-|-5-2-2-2-2-2-2-2-2-2-2-2-2-2-2-o||
||--10-10-10-10-10-10-10-10-10-10-10-10-10-9-|-5-2-2-2-2-2-2-2-2-2-2-2-2-2-2--||


    C5                                D5
||----------------------------------|----------------------------------|
||o---------------------------------|----------------------------------|
||--5-5-5-5-5-5-5-5-5-5-5-5-5-5-5-5-|----------------------------------|
||--5-5-5-5-5-5-5-5-5-5-5-5-5-5-5-5-|-0-0-0-0-0-0-0-0-0-0-0-0-0-0-0-0--|
||o-3-3-3-3-3-3-3-3-3-3-3-3-3-3-3-3-|-0-0-0-0-0-0-0-0-0-0-0-0-0-0-0-0--|
||----------------------------------|-0-0-0-0-0-0-0-0-0-0-0-0-0-0-0-0--|


  G5              F5                E5              D5
|---------------------------------|----------------------------------||
|---------------------------------|---------------------------------o||
|---------------------------------|----------------------------------||
|-5-5-5-5-5-5-5-5-3-3-3-3-3-3-3-3-|-2-2-2-2-2-2-2-2-0-0-0-0-0-0-0-0--||
|-5-5-5-5-5-5-5-5-3-3-3-3-3-3-3-3-|-2-2-2-2-2-2-2-2-0-0-0-0-0-0-0-0-o||
|-5-5-5-5-5-5-5-5-3-3-3-3-3-3-3-3-|-2-2-2-2-2-2-2-2-0-0-0-0-0-0-0-0--||


 Outro
  Q=95       Q=80       Q=60
  C5         D5         G5
                        >
|----------|----------|----------|--------*|
|----------|----------|----------|--------*|
|-5--------|----------|----------|--------*|
|-5--------|-0--------|-5--------|-(5)----*|
|-3--------|-0--------|-5--------|-(5)----*|
|----------|-0--------|-5--------|-(5)----*|
									


911Tabs.com - tabs search engine
More "Shattered By Broken Dreams" tabs @ 911Tabs

A Guide to Tab NotationGuitar TabsGuitar ResourcesGuitar TabsPrivacy PolicyGuitar TabsContact

Online Guitar Lessons

Avenged Sevenfold Guitar Tabs - Over 200,000 chords, guitar and bass tabs with video. Find tabs, video guitar lessons and more.