Music Guitar Tab, Tabs with MP3, ringtones, ringtone, concert tickets, guitar lessons, guitar tabs easy, guitar hero

Guitar Tabs Guitar Chords Bass Tabs
 Web Guitar Tabs
Guitar Lessons
 
Lyrics abcdefghijklmnopqrstuvwxyz # Top 100 Lyrics

Guitar Tabs
Guitar Tab






click on, click off


Tab for "Seize The Day Solo" - Avenged Sevenfold Rating 4Print Guitar Tabs
select alternative YouTube videos below...
Tweak the search term to refine the YouTube video results:         
Share on Facebook

Learn to play this song and others via online guitar lessons @ JamPlay.com!

-------------------------------------------------------------------------------
			     Seize the Day - Avenged Sevenfold
-------------------------------------------------------------------------------
Tabbed by: [travis]
email: syn_gates_punk14@msn.com

*This is the complete official solo for Seize the Day, and the ending solo.*
 This is my first tab I'm posting up on this site. Hope it works out for you.

Tuning: D A D G B E

Legend:

...= palm mute.
b= bend.
[ ]= what the bend should sound like.
kb= hold that bend while playing that note.
gb[]= raise that bend another step to make it sound like the note in the brackets.
~= vibrato / ring.
\/= slides.
( )= ghost note, or note on a hold bend being played.
h=hammer on.
p= pull off.
ah= pinch harmonic.
x= muted string.
tr= trill.
T= Tap.

This solo contains a lot of bends so practice on these bends. Good luck.

Guitar 1:
e|-/13-12--15---------------------------------------------------------------------------------|
B|-------13--13---------------/17b[18]kb~~~--(17)-(17)-(17)~~-(17)-(17)-(17)gb[20]~~-17~~~----|
G|-------------12-15--15p14-14----------------------------------------------------------------|
D|--------------------------------------------------------------------------------------------|
A|--------------------------------------------------------------------------------------------|
D|--------------------------------------------------------------------------------------------|


Guitar 1:
e|-----------------------------------------------------------------------------------18--18-17--17b[20]-(17)-17~~-|
B|-13\-/13-15-15b[18]-15b[18]-(15)p13-15~~~-(15)\------13-15~~-(15)\--------15--18-15--15-----18------------------|
G|-----------------------------------------------/14-15----------------15-17--15----------------------------------|
D|------------------------------------------------------------------/15-------------------------------------------|
A|----------------------------------------------------------------------------------------------------------------|
D|----------------------------------------------------------------------------------------------------------------|


Guitar 1:
e|-17-17-17-15-15--15~~~--13-15-15b[17]-(15)b[17]-(15)\--------10--10------------|
B|-----------------------------------------------------13b[15]---13--13b[15]~~~~~|
G|-------------------------------------------------------------------------------|
D|-------------------------------------------------------------------------------|
A|-------------------------------------------------------------------------------|
D|-------------------------------------------------------------------------------|


Guitar 1:
e|-13-10---------------------------------------------------------------------|
B|------13-10-----13-10------------------------------------------------------|
G|-----------13-10-----12-10-------------------------------------------------|
D|--------------------------12p10-12~-(12)\-/7-8h/10-10h/12-12h/15-(15)\/8---|
A|---------------------------------------------------------------------------|
D|---------------------------------------------------------------------------|


Guitar 1:
e|----------13--------------17b[18]--17~~~~(17)\-/15-15b[17]--15b[17]-(15)p13------------|
B|------11----11----------18-------------------------------------------------15-18b[20]--|
G|-10-7---10----10h/14--17---------------------------------------------------------------|
D|---------------------------------------------------------------------------------------|
A|---------------------------------------------------------------------------------------|
D|---------------------------------------------------------------------------------------|


Guitar 1:
e|-x-----------------------------------------------------------------------------|
B|--15-17--18~~--15------15-(15)\-11-13-15~~~~--15-15-15p\13-13p\11-11-10-11-10--|
G|-------------------14----------------------------------------------------------|
D|-------------------------------------------------------------------------------|
A|-------------------------------------------------------------------------------|
D|-------------------------------------------------------------------------------|


Guitar 1:
e|---------------------------------------------------------------------------|
B|-11p10---------------------------------------------------------------------|
G|------10h\9---10ah~~~~~~~-----(10)\----------------------------------------|
D|---------------------------------------------------------------------------|
A|---------------------------------------------------------------------------|
D|---------------------------------------------------------------------------|

++++++++++++++++++++++++++++++++++++++++++++++++++++++++++++++++++++++++++++++++++++++++++++++++++++++++

End Solo:


Guitar 1:
e|----------------------------------------------------------------------------------------|
B|-13b[15]--(13)p10-13b[15]--(13)b[15]-(13)--13p10b[11]--10tr(11)---10-11-(11)b[13]-(11)--|
G|----------------------------------------------------------------12----------------------|
D|----------------------------------------------------------------------------------------|
A|----------------------------------------------------------------------------------------|
D|----------------------------------------------------------------------------------------|
   +The trill on the 10tr(11) means you do hammer ons really fast, but in this case it's just one 
     fast hammer on. +

Guitar 1:
e|---------------------------------------------------------------------------|
B|-10h11-10-11-13-13b[14]--14h15-14-15-17-17b[18]~~~~--(17)\\----------------|
G|---------------------------------------------------------------------------|
D|---------------------------------------------------------------------------|
A|---------------------------------------------------------------------------|
D|---------------------------------------------------------------------------|


Guitar 1:
e|---------------------------------------------------------------------------|
B|-15p\10b[11]-(10)b[11]-(10)b[11]-(10)b[11]---------------------------------|
G|-------------------------------------------9b[10]-(9)b[10]-(9)b[10]-(9)----|
D|---------------------------------------------------------------------------|
A|---------------------------------------------------------------------------|
D|---------------------------------------------------------------------------|
   +The bends above mean you bend the string up and down those times. Like a wave
    like motion. Listen to this part of the song to help you out on those bends.

Guitar 1:
e|---------------------------------------------------------------------------|
B|---------------------------------------------------------------------------|
G|-9-10-10b[12]~~(10)-10-9-9-(9)b[10]-(9)-7~~--(7)\--------------------------|
D|---------------------------------------------------------------------------|
A|---------------------------------------------------------------------------|
D|---------------------------------------------------------------------------|

+++++++++++++++++++++++++++++++++++++++++++++++++++++++++++++++++++++++++++++++

Guitar 1: Tapping Riff
e|---------------------------------------------------------------------------|
B|-15T-3-------18T-6------17T-5------18T-6-----------------------------------| +The x12 means you play each 
G|-------x12---------x12--------x12--------x12-------------------------------|  tapping 12 times.+
D|---------------------------------------------------------------------------|
A|---------------------------------------------------------------------------|
D|---------------------------------------------------------------------------|
  +You put your fret finger on the small # (3, 6, 5), and you tap the 
   high notes (15, 18, 17) with your middle finger. Keep your fret finger
   on the small # as you tap and release the high note. It takes some practice
    to get this process down. It's almost like some Eddie Van Halen solos.

++++++++++++++++++++++++++++++++++++++++++++++++++++++++++++++++++++++++++++++++
Guitar 1 does the Tapping Riff one more time.
++++++++++++++++++++++++++++++++++++++++++++++++++++++++++++++++++++++++++++++++

After the other guitars do their riffs, guitar 1 does these fast sweep picks:
In order to do these, you should know how to sweep pick, and alternative picking.
Also, you should know appreggios. This is all played by Synyster Gates.

Guitar 1:
e|-18p15----------15-18p15----------15-17p13----------13-17p13----------13---|
B|------15------15--------15------15--------15------15--------15------15-----|
G|--------15--15------------15--15------------14--14------------14--14-------|
D|----------17----------------17----------------15----------------15---------|
A|---------------------------------------------------------------------------|
D|---------------------------------------------------------------------------|

Guitar 1:
e|-----------------------------------------------------------------/18p13----------|
B|-17p14----------14-17p14----------17-18p15----------15-18p15-----------15-15-----|
G|------14------14--------14------14--------15------15--------15-------------------|
D|--------14--14------------14--14------------15--15------------15-----------------|
A|----------16----------------16----------------17---------------------------------|
D|---------------------------------------------------------------------------------|

Guitar 1:
e|-18p15----------15-18p15----------15-17p13----------13-17p13----------13-|
B|------15------15--------15------15--------15------15--------15------15---|
G|--------15--15------------15--15------------14--14------------14--14-----|
D|----------17----------------17----------------15----------------15-------|
A|-------------------------------------------------------------------------|
D|-------------------------------------------------------------------------|

Guitar 1:
e|-------------------------------------|
B|-17p14----------14-17p14----------14-|
G|------14------14--------14------14---|
D|--------14--14------------14--14-----|
A|----------16----------------16-------|
D|-------------------------------------|

+++++++++++++++++++++++++++++++++++++++++++++++++++++++++++++++++++++++++++++++++
Outro:

Guitar 1:
e|--------------------------------------------------------|
B|-15T-3-------17T-5------18T-6---------18T~~~~~~~~~~~----|
G|-------x18---------x12--------x18-----------------------|
D|--------------------------------------------------------|
A|--------------------------------------------------------|
D|--------------------------------------------------------|

+++++++++++++++++++++++++++++++++++++++++++++++++++++++++++++++++++++++++++++++++
Good luck on playing this song. If you don't know what the tab is saying, listen to the song and try
to follow along with the song as you read the tab.   
Please rate this tab.
-[travis]
									


911Tabs.com - tabs search engine
More "Seize The Day Solo" tabs @ 911Tabs

A Guide to Tab NotationGuitar TabsGuitar ResourcesGuitar TabsPrivacy PolicyGuitar TabsContact

Online Guitar Lessons

Avenged Sevenfold Guitar Tabs - Over 200,000 chords, guitar and bass tabs with video. Find tabs, video guitar lessons and more.