Music Guitar Tab, Tabs with MP3, ringtones, ringtone, concert tickets, guitar lessons, guitar tabs easy, guitar hero

Guitar Tabs Guitar Chords Bass Tabs
 Web Guitar Tabs
Guitar Lessons
 
Lyrics abcdefghijklmnopqrstuvwxyz # Top 100 Lyrics

Guitar Tabs
Guitar Tab






click on, click off


Tab for "Seize The Day Solo" - Avenged Sevenfold Rating 4Print Guitar Tabs
select alternative YouTube videos below...
Tweak the search term to refine the YouTube video results:         
Share on Facebook

Learn to play this song and others via online guitar lessons @ JamPlay.com!

ARTIST: AVENGED SEVENFOLD
SONG: SEIZE THE DAY
ALBUM: CITY OF EVIL

TUNING:(LOW TO HIGH)D-A-D-G-B-E
	

        SOLO
        E|13-12----15----------------------------------------------------|
	B|------13----13-------------17b~~~~~-17~-13-15b-15p13h15~-------|
	G|---------------12-15p14-14-------------------------------14-15-|
	D|---------------------------------------------------------------|
	A|---------------------------------------------------------------|
	D|---------------------------------------------------------------|

	E|----------------------------18----18-17----17b~~~---17-17-17-15|
	B|13-15~----------15----18-15----15-------18---------------------|
	G|----------17-15----15------------------------------------------|
	D|------/15------------------------------------------------------|
	A|---------------------------------------------------------------|
	D|---------------------------------------------------------------|

	E|15-15~-15b/-10----10-----13-10---------------------------------|
	B|---------------13----13b-------13-10-------13-10---------------|
	G|-------------------------------------13-10-------12-10---------|
	D|-------------------------------------------------------12p10---|
	A|---------------------------------------------------------------|
	D|---------------------------------------------------------------|

	E|-----------------------------13-----------------17b~-15~-13-15-|
	B|-----------------------11-------11-----------18----------------|
	G|------------------10-7----10--------10/14-17-------------------|
	D|12/7-8/10/12/15/8----------------------------------------------|
	A|---------------------------------------------------------------|
	D|---------------------------------------------------------------|

	E|--------X------------------------------------------------------|
	B|15-18~~---15-17-18~-15----15/11-13-15~-15-15-15/13/11-10-11-10-|
	G|-----------------------14--------------------------------------|
	D|---------------------------------------------------------------|
	A|---------------------------------------------------------------|
	D|---------------------------------------------------------------|

	E|---------------------------------------------------------------|
	B|11p10----------------------------------------------------------|
	G|------10p9-10~-10*/--------------------------------------------|
	D|---------------------------------------------------------------|
	A|---------------------------------------------------------------|
	D|---------------------------------------------------------------|

									


911Tabs.com - tabs search engine
More "Seize The Day Solo" tabs @ 911Tabs

A Guide to Tab NotationGuitar TabsGuitar ResourcesGuitar TabsPrivacy PolicyGuitar TabsContact

Online Guitar Lessons

Avenged Sevenfold Guitar Tabs - Over 200,000 chords, guitar and bass tabs with video. Find tabs, video guitar lessons and more.