Music Guitar Tab, Tabs with MP3, ringtones, ringtone, concert tickets, guitar lessons, guitar tabs easy, guitar hero

Guitar Tabs Guitar Chords Bass Tabs
 Web Guitar Tabs
Guitar Lessons
 
Lyrics abcdefghijklmnopqrstuvwxyz # Top 100 Lyrics

Guitar Tabs
Guitar Tab






click on, click off


Tab for "Seize The Day" - Avenged Sevenfold Rating 4Print Guitar Tabs
select alternative YouTube videos below...
Tweak the search term to refine the YouTube video results:         
Share on Facebook

Learn to play this song and others via online guitar lessons @ JamPlay.com!

Band- Avenged Sevenfold
Song- Seize The Day

Tuning: Standard

Guitar I Acoustic
Guitar II Lead Electric
Guitar III Backing Electric
Guitar IIII Other Backing Electric

Intro

Guitar I: Srumming
e|--1---------------3--------3--------3-------3-------1----------------------|
B|--3-------3-------3--------3--------3-------3-------3----------------------|
G|--2-------3-------0--------0--------0-------0-------2----------------------|
D|--0-------3-------0--------0--------0-------0-------0----------------------|
A|----------1-------x--------x--------x-------x------------------------------|
E|------------------3--------3--------3-------3------------------------------|

e|-------3------------------------1------------------------------------------|
B|-------3-------1-----------1----3------------------------------------------|
G|-------0-------0-----------0----2------------------------------------------|
D|-------0-------2------3----2----0------------------------------------------|
A|-------x-------3------3----3-----------------------------------------------|
E|-1-1-2-3--------------1----------------------------------------------------|

e|---3-----------------------------------------------------------------------|
B|---3------1-----------1----------------------------------------------------|
G|---0------0-----------0----------------------------------------------------|
D|---0------2-------3---2----------------------------------------------------|
A|---x------3-------3---3----------------------------------------------------|
E|---3--------------1--------------------------------------------------------|

Guitar II
e|---------------------------------------------------------------------------|
B|---------------------------------------------------------------------------|
G|---------------------------------------------------------------------------|
D|------5p3h5-3---2---0------------------------------------------------------|
A|--1/3----------------------------------------------------------------------|
E|---------------------------------------------------------------------------|

e|---------------------------------------------------------------------------|
B|--18-17----15--------------------------------------------------------------|
G|--------14-----------------------------------------------------------------|
D|---------------------------------------------------------------------------|
A|---------------------------------------------------------------------------|
E|---------------------------------------------------------------------------|

e|-------------12b\----------------------------------------------------------|
B|-/7b--10b-10---------------------------------------------------------------|
G|---------------------------------------------------------------------------|
D|---------------------------------------------------------------------------|
A|---------------------------------------------------------------------------|
E|---------------------------------------------------------------------------|



Verse

Guitar I: Strumming
e|---1-----3-----------------------------------------------------------------|
B|---3-----3----------1------------------------------------------------------|
G|---2-----0----------0------------------------------------------------------|
D|---0-----0-----3----2------------------------------------------------------|
A|---------x-----3----3------------------------------------------------------|
E|---------3-----1-----------------------------------------------------------|

Guitar II
e|-----1--------------3------------------------------------------------------|
B|--------3-3-------3-----3--3--------6-----------8----6---5-----------------|
G|---2-----2------0---------0-------5-----5---5------------------------------|
D|--0-----------------------------3---------6--------------------------------|
A|---------------------------------------------------------------------------|
E|---------------------------------------------------------------------------|

e|-----1--------------3------------------------------------------------------|
B|--------3-3-------3-----3--3--------6-----------------1--------------------|
G|---2-----2------0---------0-------5-----5---5-------0-----0--0-------------|
D|--0-----------------------------3---------6-------2---------2--------------|
A|---------------------------------------------------------------------------|
E|---------------------------------------------------------------------------|

Pre Chorus:

Guitar I: Strumming
e|-------3------------------------1--------------------------[Let Ring]------|
B|-------3-------1-----------1----3------------------------------3-----------|
G|-------0-------0-----------0----2------------------------------3-----------|
D|-------0-------2------3----2----0------------------------------3-----------|
A|-------x-------3------3----3-----------------------------------1-----------|
E|-1-1-2-3--------------1----------------------------------------------------|

Chorus

Guitar I: Srumming
e|--1---------------3--------3--------3-------3-------1----------------------|
B|--3-------3-------3--------3--------3-------3-------3----------------------|
G|--2-------3-------0--------0--------0-------0-------2----------------------|
D|--0-------3-------0--------0--------0-------0-------0----------------------|
A|----------1-------x--------x--------x-------x------------------------------|
E|------------------3--------3--------3-------3------------------------------|

***Play Verse***
***Play Pre-Chorus***
***Play Chorus***

Guitar Solo
e|--11h12p11--15----------------12(13)-13-13h15-12b----12-13-13b------------------|
B|----------12--12----------------------------------15-----------15p13h15-----13h15b|
G|----------------12-15-15p14-14-----------------------------------------14-15------|
D|---------------------------------------------------------------------------|
A|---------------------------------------------------------------------------|
E|---------------------------------------------------------------------------|

e|-----------13---18-17-18-17--18b--17-17-15-15b-13-15-17b-------------------|
B|-------15----15-----------18-----------------------------15-13-15-13-15----|
G|-14-15---15----------------------------------------------------------------|
D|---------------------------------------------------------------------------|
A|---------------------------------------------------------------------------|
E|---------------------------------------------------------------------------|

e|---------------------------------------------------------------------------|
B|-18-15----------------------------------------------------15---------------|
G|------17-14-12----14-12-------------------------------15----15-14h15-------|
D|---------------14-------15-12-12-----------12-/15-15----15-----------------|
A|-----------------------------------12-13-15---------17---------------------|
E|---------------------------------------------------------------------------|

e|-17b-16b-16b--15p13h15----12-13--------------------------------------------|
B|------------------------15------15--15--11-13-15---------------------------|
G|----------------------------------14---------------------------------------|
D|---------------------------------------------------------------------------|
A|---------------------------------------------------------------------------|
E|---------------------------------------------------------------------------|

e|-----------------------------------13*-------------------------------------|
B|---15\13-13\11-11-10-11-10-11-10-------------------------------------------|
G|--------------------------------10-----------------------------------------|
D|---------------------------------------------------------------------------|
A|---------------------------------------------------------------------------|
E|---------------------------------------------------------------------------|


Guitar I: Strumming
e|-----------------1---------------------------------------------------------|
B|---------1-------3------3--------------------------------------------------|
G|---------0-------2------3--------------------------------------------------|
D|--3------2-------0------3--------------------------------------------------|
A|--3------3--------------1--------------------------------------------------|
E|--1------------------------------------------------------------------------|

Bridge

Guitar I: Strumming
e|-----------------1---------------------------------------------------------|
B|---------1-------3------3--------------------------------------------------|
G|---------0-------2------3--------------------------------------------------|
D|--3------2-------0------3--------------------------------------------------|
A|--3------3--------------1--------------------------------------------------|
E|--1------------------------------------------------------------------------|

Guitar II
e|---------------------------------------------------------------------------|
B|---------------------------------------------------[Let Ring]--------------|
G|---9--10-12--10-10-10-10-10-10-10-10-10----9--10-12----10------------------|
D|---x--x--x---x--x--x--x--x--x--x--x--x-----x--x-x-----x-------------------|
A|---7--8--10--8--8--8--8--8--8--8--8--8-----7--8--10----8-------------------|
E|---------------------------------------------------------------------------|


***Play Chorus***


Outro

Guitar III: Palm Muted

e|---------------------------------------------------------------------------|
B|---------------------------------------------------------------------------|
G|-----------------------------------2-2-2-2-2-2-2-2--3-3-3-3-3-3-3-3--------|
D|-5-5-5-5-5-5-5-5--3-3-3-3-3-3-3-3--2-2-2-2-2-2-2-2--3-3-3-3-3-3-3-3--------|
A|-5-5-5-5-5-5-5-5--3-3-3-3-3-3-3-3--0-0-0-0-0-0-0-0--1-1-1-1-1-1-1-1--------|
E|-3-3-3-3-3-3-3-3--1-1-1-1-1-1-1-1------------------------------------------|

Guitar II
e|---------------------------------------------------------------------------|
B|--13b-13p12p10-13b--------------------12-12b--12-11-12-13-13b-15-17-17b----|
G|---------------------14---14-12-14-15--------------------------------------|
D|---------------------------------------------------------------------------|
A|---------------------------------------------------------------------------|
E|---------------------------------------------------------------------------|

First two notes are vibrato bending up and down. The 10b is a slow bend.
e|---------------------------------------------------------------------------|
B|---------------------------------------------------------------------------|
G|---14b-----9b---9-10-10b-----------------10-9-9h10p9-7---------------------|
D|---------------------------------------------------------------------------|
A|---------------------------------------------------------------------------|
E|---------------------------------------------------------------------------|

Fast Alternate Picking
e|---------------------------------------------------------------------------|
B|-15-------------18-------------17--------------18--------------------------|
G|---------------------------------------------------------------------------|
D|---------------------------------------------------------------------------|
A|---------------------------------------------------------------------------|
E|---------------------------------------------------------------------------|

Outro Part II

Guitar 1: Strumming
e|--3----------------------PLAY A SECOND TIME THEN...|-----------------------|
B|--3-------------1------3---------------------------|-----------------------|
G|--0-------------2------3---------------------------|-------3---------------|
D|--0------3------2------3---------------------------|---0-3-----------------|
A|--x------3------0------1---------------------------|-1-------1-------------|
E|--3------1-----------------------------------------|-----------------------|

Guitar II: CRAZY SWEEPING
e|--18-13-------------13-18-13--------------13-17-12-------------12-17-------------12-|
B|--------14--------14--------14----------14--------13----------13----14---------14---|
G|----------15----15------------15------15------------14------14--------15-----15-----|
D|-----------15--15---------------15--15----------------14--14-----------15--15-------|
A|-------------16-------------------16--------------------15---------------16---------|
E|------------------------------------------------------------------------------------|

e|-15-12---------------12-15-12---------------12-13-10--------------10--|
B|-------13----------13---------13----------13--------11----------11----|
G|---------12------12-------------12------12------------10------10------|
D|-----------14--14-----------------14--14----------------12--12--------|
A|-------------15---------------------15--------------------13----------|
E|----------------------------------------------------------------------|

e|--13-10---------15-12---------------------------|--------------------------|
B|-------11------------13------DO IT AGAIN THEN...|--15--17--18--------------|
G|---------10------------12-----------------------|--------------------------|
D|-----------12------------14---------------------|--FAST ALTERNATE PICKING--|
A|-------------13------------15-------------------|--------------------------|
E|------------------------------------------------|--------------------------|

Guitar III: Open
e|---------------------------------------------------------------------------|
B|---------------------------------------------------------------------------|
G|-------------------2-2-2-2--3-3-3-3----------------------------------------|
D|-5-5-5-5--3-3-3-3--2-2-2-2--3-3-3-3----------------------------------------|
A|-5-5-5-5--3-3-3-3--0-0-0-0--1-1-1-1----------------------------------------|
E|-3-3-3-3--1-1-1-1----------------------------------------------------------|

Guitar III: Open
e|---------------------------------------------------------------------------|
B|---------------------------------------------------------------------------|
G|-------------------2-2-2-2-------3-----------3-----------------------------|
D|-5-5-5-5--3-3-3-3--2-2-2-2-----3---3----0--3-------------------------------|
A|-5-5-5-5--3-3-3-3--0-0-0-0----1-------1--------1---------------------------|
E|-3-3-3-3--1-1-1-1----------------------------------------------------------|


Guitar IIII
e|---------------------------------------------------------------------------|
B|---------------------------------------------------------------------------|
G|--15-15-15-15--14-14-14-14--12-12-12-12--10-10-10-10-----------------------|
D|--x--x--x--x---x--x--x--x---x--x--x--x---x--x--x--x------------------------|
A|--13-13-13-13--12-12-12-12--10-10-10-10--8--8--8--8------------------------|
E|---------------------------------------------------------------------------|
									


911Tabs.com - tabs search engine
More "Seize The Day" tabs @ 911Tabs

A Guide to Tab NotationGuitar TabsGuitar ResourcesGuitar TabsPrivacy PolicyGuitar TabsContact

Online Guitar Lessons

Avenged Sevenfold Guitar Tabs - Over 200,000 chords, guitar and bass tabs with video. Find tabs, video guitar lessons and more.