Music Guitar Tab, Tabs with MP3, ringtones, ringtone, concert tickets, guitar lessons, guitar tabs easy, guitar hero

Guitar Tabs Guitar Chords Bass Tabs
 Web Guitar Tabs
Guitar Lessons
 
Lyrics abcdefghijklmnopqrstuvwxyz # Top 100 Lyrics

Guitar Tabs
Guitar Tab






click on, click off


Tab for "Second Heartbeat" - Avenged Sevenfold Rating 4Print Guitar Tabs
select alternative YouTube videos below...
Tweak the search term to refine the YouTube video results:         
Share on Facebook

Learn to play this song and others via online guitar lessons @ JamPlay.com!

G|--------------------------------------------------------------| 
D|--------------------------------------------------------------| 
A|-3333333333333-3---3-1---------------3--3-5-6-5-3-1-----------| 
D|-------------------------6---3---5-----------------6---3---5--| 

G|------------------------------------------------------------------------------------| 
D|------------------------------------------------------------------------------------| 
A|--33333333333333333-555-666-555-333-111---------------------------------------------|
D|---------------------------------------66666666666666--3333333333-5555555555--------|

G|------------------------------------------------------------------------------------| 
D|------------------------------------------------------------------------------------| 
A|--33333333333333333-555-666-555-333-111--------------------------------------3------|
D|---------------------------------------66666666666666--3333333333-5555555555--------|

 
G|---------------------------------------| 
D|---------------------------------------| 
A|--3333-5555-6666-----------------------| 
D|-----------------3333--666666--555555--| 

G|---------------------------------------| 
D|---------------------------------------| 
A|--3333-5555-6666-----------------------| 
D|-----------------3333--666666--555555--| 

G|----------------------------------------| 
D|----------------------------------------| 
A|--333--555--666-------------------------| 
D|-----------------333--666-666--555-555--| 

G|-------------------------------------------------| 
D|-------------------------------------------------| 
A|--3333-5555-6666-----------------------66666666--| 
D|-----------------3333--666666--555555------------| 

G|-----------------3--------------------| 
D|--------6----5-6----------6----5-6-3--| 
A|--3-5-6----6--------3-5-6----6--------| 
D|--------------------------------------| 

G|---------------------------------------| 
D|---------------------------------------| 
A|--33333333-----------666666666---------| 
D|-----------6666666------------1111111--|

G|-----------------------------------------------| 
D|-------------------------------------------2---| 
A|--33333333-----------666666666-----------3-----| 
D|-----------6666666-------------8888888---------| 

G|-------------------------------------------------| 
D|-------------------------------------------------| 
A|--333335-333335-333335--------333335333335333335-|
D|-----------------------66-33---------------------| 

G|--------------------------------------------------------| 
D|--------------------------------------------------------| 
A|--33333333333333333333--------333335333335333335--------|
D|-----------------------66-33---------------------66--33-| 

G|------------------------------------------| 
D|------------------------------------------|      X6
A|--33333333--11111111------------11111111--| 
D|----------------------66666666------------| 

G|--------------------------------------------------------------------------------------| 
D|--------------------------------------------------------------------------------------|  X3
A|-33333-56-/1010-88-66-55--11111111-555-666-8----------11111111-33333-56-/1010-88-66-55|
D|---------------------------------------------11111111---------------------------------| 

G|--------------------------------------------------|
D|--------------------------------------------------|
A|-33333-56-/1010-88-66-55--11111111-555-666-8---1-3|
D|---------------------------------------------1----|
 
G|-----------------| 
D|-----------------| 
A|--3--1-----------| 
D|--------3--6--8--| 

G|-----------------33--44--| 
D|------------3-55---------|   X4
A|--33--56-56--------------| 
D|-------------------------| 

G|------------------------------------------------------------| 
D|------------------------------------------------------------| X4
A|--5--5-6-5-6-555555555555-5--5-6-5-6-555555-8888-7777-------| 
D|------------------------------------------------------------| 

G|----------2-3---4-|
D|----5-3-5---------|
A|-5----------------|
D|------------------|

G|---------------------------------------| 
D|---------------------------------------| 
A|--3------------3--3-5-6-5-3-1----------| 
D|----6--3--5-------------------6--3--5--| 

G|------------------------------------------------------------------------------------| 
D|------------------------------------------------------------------------------------| 
A|--33333333333333333-555-666-555-333-111---------------------------------------------|
D|---------------------------------------66666666666666--3333333333-5555555555--------|

G|------------------------------------------------------------------------------------| 
D|------------------------------------------------------------------------------------| 
A|--33333333333333333-555-666-555-333-111--------------------------------------3------|
D|---------------------------------------66666666666666--3333333333-5555555555--------|

G|--------------------------------------------------------------------------------------| 
D|--------------------------------------------------------------------------------------|  X2
A|-33333-56-/1010-88-66-55--11111111-555-666-8----------11111111-33333-56-/1010-88-66-55|
D|---------------------------------------------11111111---------------------------------| 

G|------------------------------------------| 
D|------------------------------------------|      X4
A|--33333333--11111111------------11111111--| 
D|----------------------66666666------------| 

G|--------------------------------------------------------------------------------------| 
D|--------------------------------------------------------------------------------------|  X3
A|-33333-56-/1010-88-66-55--11111111-555-666-8----------11111111-33333-56-/1010-88-66-55|
D|---------------------------------------------11111111---------------------------------| 

G|--------------------------------------------------|
D|--------------------------------------------------|
A|-33333-56-/1010-88-66-55--11111111-555-666-8---1-3|
D|---------------------------------------------1----|
 
G|-------------------------------------------------------------------| 
D|-------------------------------------------------------------------| 
A|--3333333333333-111111111111111-------------------333333333333333--| 
D|--------------------------------11111111-55555555------------------| 

G|-------------------------------------------------------------------| 
D|-------------------------------------------------------------------| 
A|--3333333333333-111111111111111----------11111111-333333333333333--| 
D|--------------------------------11111111---------------------------|

G|-------------------------------------------------------------------| 
D|-------------------------------------------------------------------| 
A|--3333333333333-111111111111111----------11111111-333333333333333--| 
D|--------------------------------11111111---------------------------|

G|-------------------------------------| 
D|-------------------------------------| 
A|--3333333333333-111111111111111--1-3-| 
D|--------------------------------1----|

									


911Tabs.com - tabs search engine
More "Second Heartbeat" tabs @ 911Tabs

A Guide to Tab NotationGuitar TabsGuitar ResourcesGuitar TabsPrivacy PolicyGuitar TabsContact

Online Guitar Lessons

Avenged Sevenfold Guitar Tabs - Over 200,000 chords, guitar and bass tabs with video. Find tabs, video guitar lessons and more.